  0
SECTION
  2
HEADER
  9
$ACADVER
  1
AC1009
  0
ENDSEC
  0
SECTION
  2
ENTITIES
  0
POLYLINE
  5
90
  8
Layer_0
  62
0
  70
1
  66
1
  10
0
  20
0
  30
0
  0
VERTEX
  5
90
  8
Layer_0
  10
198.49852
  20
308.81445
  0
VERTEX
  5
91
  8
Layer_0
  10
198.77211
  20
308.60651
  0
VERTEX
  5
92
  8
Layer_0
  10
199.0139
  20
308.40137
  0
VERTEX
  5
93
  8
Layer_0
  10
199.22568
  20
308.18939
  0
VERTEX
  5
94
  8
Layer_0
  10
199.40926
  20
307.96082
  0
VERTEX
  5
95
  8
Layer_0
  10
199.56647
  20
307.70587
  0
VERTEX
  5
96
  8
Layer_0
  10
199.69913
  20
307.41492
  0
VERTEX
  5
97
  8
Layer_0
  10
199.80905
  20
307.07822
  0
VERTEX
  5
98
  8
Layer_0
  10
199.89804
  20
306.68604
  0
VERTEX
  5
99
  8
Layer_0
  10
199.96794
  20
306.22864
  0
VERTEX
  5
9a
  8
Layer_0
  10
200.02054
  20
305.69629
  0
VERTEX
  5
9b
  8
Layer_0
  10
200.05769
  20
305.07932
  0
VERTEX
  5
9c
  8
Layer_0
  10
200.08121
  20
304.36795
  0
VERTEX
  5
9d
  8
Layer_0
  10
200.08841
  20
303.97385
  0
VERTEX
  5
9e
  8
Layer_0
  10
200.09288
  20
303.55249
  0
VERTEX
  5
9f
  8
Layer_0
  10
200.09485
  20
303.10272
  0
VERTEX
  5
a0
  8
Layer_0
  10
200.09454
  20
302.62323
  0
VERTEX
  5
a1
  8
Layer_0
  10
200.08801
  20
301.57037
  0
VERTEX
  5
a2
  8
Layer_0
  10
200.07513
  20
300.38434
  0
VERTEX
  5
a3
  8
Layer_0
  10
200.05063
  20
298.64832
  0
VERTEX
  5
a4
  8
Layer_0
  10
200.03061
  20
297.6626
  0
VERTEX
  5
a5
  8
Layer_0
  10
200.01855
  20
297.21735
  0
VERTEX
  5
a6
  8
Layer_0
  10
200.00476
  20
296.80212
  0
VERTEX
  5
a7
  8
Layer_0
  10
199.98892
  20
296.41565
  0
VERTEX
  5
a8
  8
Layer_0
  10
199.97075
  20
296.05664
  0
VERTEX
  5
a9
  8
Layer_0
  10
199.94992
  20
295.72382
  0
VERTEX
  5
aa
  8
Layer_0
  10
199.92613
  20
295.41583
  0
VERTEX
  5
ab
  8
Layer_0
  10
199.89909
  20
295.1315
  0
VERTEX
  5
ac
  8
Layer_0
  10
199.83406
  20
294.62842
  0
VERTEX
  5
ad
  8
Layer_0
  10
199.75243
  20
294.20425
  0
VERTEX
  5
ae
  8
Layer_0
  10
199.65176
  20
293.84869
  0
VERTEX
  5
af
  8
Layer_0
  10
199.52963
  20
293.55151
  0
VERTEX
  5
b0
  8
Layer_0
  10
199.38365
  20
293.30231
  0
VERTEX
  5
b1
  8
Layer_0
  10
199.21143
  20
293.09082
  0
VERTEX
  5
b2
  8
Layer_0
  10
199.01054
  20
292.9068
  0
VERTEX
  5
b3
  8
Layer_0
  10
198.77858
  20
292.73984
  0
VERTEX
  5
b4
  8
Layer_0
  10
198.51312
  20
292.57971
  0
VERTEX
  5
b5
  8
Layer_0
  10
198.21178
  20
292.41608
  0
VERTEX
  5
b6
  8
Layer_0
  10
197.74963
  20
292.22351
  0
VERTEX
  5
b7
  8
Layer_0
  10
197.21512
  20
292.08649
  0
VERTEX
  5
b8
  8
Layer_0
  10
196.63217
  20
292.00497
  0
VERTEX
  5
b9
  8
Layer_0
  10
196.02469
  20
291.97894
  0
VERTEX
  5
ba
  8
Layer_0
  10
195.41664
  20
292.0083
  0
VERTEX
  5
bb
  8
Layer_0
  10
194.83194
  20
292.09302
  0
VERTEX
  5
bc
  8
Layer_0
  10
194.29456
  20
292.23297
  0
VERTEX
  5
bd
  8
Layer_0
  10
193.8284
  20
292.4281
  0
VERTEX
  5
be
  8
Layer_0
  10
193.53531
  20
292.59427
  0
VERTEX
  5
bf
  8
Layer_0
  10
193.27364
  20
292.77173
  0
VERTEX
  5
c0
  8
Layer_0
  10
193.04166
  20
292.96802
  0
VERTEX
  5
c1
  8
Layer_0
  10
192.83766
  20
293.19061
  0
VERTEX
  5
c2
  8
Layer_0
  10
192.65991
  20
293.44708
  0
VERTEX
  5
c3
  8
Layer_0
  10
192.50668
  20
293.745
  0
VERTEX
  5
c4
  8
Layer_0
  10
192.37622
  20
294.09186
  0
VERTEX
  5
c5
  8
Layer_0
  10
192.26685
  20
294.49524
  0
VERTEX
  5
c6
  8
Layer_0
  10
192.17679
  20
294.96265
  0
VERTEX
  5
c7
  8
Layer_0
  10
192.10437
  20
295.50165
  0
VERTEX
  5
c8
  8
Layer_0
  10
192.04781
  20
296.11981
  0
VERTEX
  5
c9
  8
Layer_0
  10
192.0054
  20
296.82462
  0
VERTEX
  5
ca
  8
Layer_0
  10
191.98898
  20
297.21185
  0
VERTEX
  5
cb
  8
Layer_0
  10
191.97543
  20
297.62366
  0
VERTEX
  5
cc
  8
Layer_0
  10
191.96455
  20
298.06085
  0
VERTEX
  5
cd
  8
Layer_0
  10
191.95615
  20
298.52441
  0
VERTEX
  5
ce
  8
Layer_0
  10
191.94998
  20
299.01532
  0
VERTEX
  5
cf
  8
Layer_0
  10
191.94354
  20
300.08286
  0
VERTEX
  5
d0
  8
Layer_0
  10
191.94363
  20
301.51788
  0
VERTEX
  5
d1
  8
Layer_0
  10
191.94641
  20
302.28839
  0
VERTEX
  5
d2
  8
Layer_0
  10
191.95154
  20
302.97858
  0
VERTEX
  5
d3
  8
Layer_0
  10
191.95944
  20
303.5943
  0
VERTEX
  5
d4
  8
Layer_0
  10
191.97055
  20
304.1413
  0
VERTEX
  5
d5
  8
Layer_0
  10
191.98528
  20
304.62537
  0
VERTEX
  5
d6
  8
Layer_0
  10
192.00406
  20
305.05231
  0
VERTEX
  5
d7
  8
Layer_0
  10
192.02728
  20
305.4278
  0
VERTEX
  5
d8
  8
Layer_0
  10
192.05539
  20
305.75769
  0
VERTEX
  5
d9
  8
Layer_0
  10
192.08881
  20
306.04776
  0
VERTEX
  5
da
  8
Layer_0
  10
192.12794
  20
306.30377
  0
VERTEX
  5
db
  8
Layer_0
  10
192.17322
  20
306.53149
  0
VERTEX
  5
dc
  8
Layer_0
  10
192.28389
  20
306.92523
  0
VERTEX
  5
dd
  8
Layer_0
  10
192.42418
  20
307.27515
  0
VERTEX
  5
de
  8
Layer_0
  10
192.62788
  20
307.69449
  0
VERTEX
  5
df
  8
Layer_0
  10
192.83144
  20
308.04993
  0
VERTEX
  5
e0
  8
Layer_0
  10
193.04276
  20
308.34906
  0
VERTEX
  5
e1
  8
Layer_0
  10
193.26978
  20
308.59967
  0
VERTEX
  5
e2
  8
Layer_0
  10
193.52043
  20
308.8093
  0
VERTEX
  5
e3
  8
Layer_0
  10
193.80267
  20
308.9856
  0
VERTEX
  5
e4
  8
Layer_0
  10
194.12442
  20
309.13626
  0
VERTEX
  5
e5
  8
Layer_0
  10
194.49365
  20
309.26886
  0
VERTEX
  5
e6
  8
Layer_0
  10
194.96089
  20
309.37787
  0
VERTEX
  5
e7
  8
Layer_0
  10
195.48906
  20
309.43362
  0
VERTEX
  5
e8
  8
Layer_0
  10
196.05246
  20
309.43915
  0
VERTEX
  5
e9
  8
Layer_0
  10
196.62538
  20
309.39728
  0
VERTEX
  5
ea
  8
Layer_0
  10
197.18214
  20
309.31094
  0
VERTEX
  5
eb
  8
Layer_0
  10
197.69705
  20
309.18311
  0
VERTEX
  5
ec
  8
Layer_0
  10
198.14441
  20
309.01663
  0
VERTEX
  5
ed
  8
Layer_0
  10
198.49852
  20
308.81445
  0
SEQEND
  0
POLYLINE
  5
ef
  8
Layer_0
  62
0
  70
1
  66
1
  10
0
  20
0
  30
0
  0
VERTEX
  5
ef
  8
Layer_0
  10
207.40739
  20
308.72974
  0
VERTEX
  5
f0
  8
Layer_0
  10
207.74338
  20
308.70911
  0
VERTEX
  5
f1
  8
Layer_0
  10
208.07153
  20
308.65863
  0
VERTEX
  5
f2
  8
Layer_0
  10
208.35419
  20
308.58591
  0
VERTEX
  5
f3
  8
Layer_0
  10
208.55379
  20
308.49847
  0
VERTEX
  5
f4
  8
Layer_0
  10
208.59795
  20
308.45135
  0
VERTEX
  5
f5
  8
Layer_0
  10
208.64584
  20
308.36401
  0
VERTEX
  5
f6
  8
Layer_0
  10
208.69736
  20
308.23706
  0
VERTEX
  5
f7
  8
Layer_0
  10
208.75237
  20
308.07117
  0
VERTEX
  5
f8
  8
Layer_0
  10
208.81073
  20
307.86697
  0
VERTEX
  5
f9
  8
Layer_0
  10
208.87228
  20
307.62512
  0
VERTEX
  5
fa
  8
Layer_0
  10
208.93695
  20
307.34625
  0
VERTEX
  5
fb
  8
Layer_0
  10
209.00455
  20
307.03104
  0
VERTEX
  5
fc
  8
Layer_0
  10
209.07497
  20
306.68008
  0
VERTEX
  5
fd
  8
Layer_0
  10
209.14807
  20
306.29407
  0
VERTEX
  5
fe
  8
Layer_0
  10
209.22372
  20
305.87363
  0
VERTEX
  5
ff
  8
Layer_0
  10
209.30179
  20
305.4194
  0
VERTEX
  5
100
  8
Layer_0
  10
209.38214
  20
304.93204
  0
VERTEX
  5
101
  8
Layer_0
  10
209.46463
  20
304.41217
  0
VERTEX
  5
102
  8
Layer_0
  10
209.54912
  20
303.8605
  0
VERTEX
  5
103
  8
Layer_0
  10
209.95883
  20
301.06378
  0
VERTEX
  5
104
  8
Layer_0
  10
210.06039
  20
300.4118
  0
VERTEX
  5
105
  8
Layer_0
  10
210.10654
  20
300.13681
  0
VERTEX
  5
106
  8
Layer_0
  10
210.15007
  20
299.89612
  0
VERTEX
  5
107
  8
Layer_0
  10
210.19131
  20
299.68997
  0
VERTEX
  5
108
  8
Layer_0
  10
210.23059
  20
299.51855
  0
VERTEX
  5
109
  8
Layer_0
  10
210.26828
  20
299.38217
  0
VERTEX
  5
10a
  8
Layer_0
  10
210.30469
  20
299.28101
  0
VERTEX
  5
10b
  8
Layer_0
  10
210.34015
  20
299.21533
  0
VERTEX
  5
10c
  8
Layer_0
  10
210.37498
  20
299.18536
  0
VERTEX
  5
10d
  8
Layer_0
  10
210.40958
  20
299.19131
  0
VERTEX
  5
10e
  8
Layer_0
  10
210.44421
  20
299.23346
  0
VERTEX
  5
10f
  8
Layer_0
  10
210.47928
  20
299.31198
  0
VERTEX
  5
110
  8
Layer_0
  10
210.51509
  20
299.42715
  0
VERTEX
  5
111
  8
Layer_0
  10
210.55197
  20
299.57922
  0
VERTEX
  5
112
  8
Layer_0
  10
210.59027
  20
299.76837
  0
VERTEX
  5
113
  8
Layer_0
  10
210.63033
  20
299.99487
  0
VERTEX
  5
114
  8
Layer_0
  10
210.67245
  20
300.25897
  0
VERTEX
  5
115
  8
Layer_0
  10
210.71701
  20
300.56085
  0
VERTEX
  5
116
  8
Layer_0
  10
210.76431
  20
300.90079
  0
VERTEX
  5
117
  8
Layer_0
  10
210.86859
  20
301.69571
  0
VERTEX
  5
118
  8
Layer_0
  10
211.66203
  20
308.06879
  0
VERTEX
  5
119
  8
Layer_0
  10
212.6841
  20
308.00583
  0
VERTEX
  5
11a
  8
Layer_0
  10
213.09216
  20
307.97018
  0
VERTEX
  5
11b
  8
Layer_0
  10
213.44768
  20
307.91962
  0
VERTEX
  5
11c
  8
Layer_0
  10
213.59378
  20
307.89087
  0
VERTEX
  5
11d
  8
Layer_0
  10
213.71243
  20
307.8609
  0
VERTEX
  5
11e
  8
Layer_0
  10
213.79884
  20
307.8306
  0
VERTEX
  5
11f
  8
Layer_0
  10
213.84824
  20
307.80078
  0
VERTEX
  5
120
  8
Layer_0
  10
213.85492
  20
307.75391
  0
VERTEX
  5
121
  8
Layer_0
  10
213.85341
  20
307.63773
  0
VERTEX
  5
122
  8
Layer_0
  10
213.84412
  20
307.4563
  0
VERTEX
  5
123
  8
Layer_0
  10
213.82748
  20
307.21362
  0
VERTEX
  5
124
  8
Layer_0
  10
213.80391
  20
306.9137
  0
VERTEX
  5
125
  8
Layer_0
  10
213.73776
  20
306.15808
  0
VERTEX
  5
126
  8
Layer_0
  10
213.64911
  20
305.22144
  0
VERTEX
  5
127
  8
Layer_0
  10
213.54138
  20
304.13583
  0
VERTEX
  5
128
  8
Layer_0
  10
213.35161
  20
302.29803
  0
VERTEX
  5
129
  8
Layer_0
  10
213.2113
  20
300.98001
  0
VERTEX
  5
12a
  8
Layer_0
  10
213.064
  20
299.625
  0
VERTEX
  5
12b
  8
Layer_0
  10
212.91312
  20
298.26505
  0
VERTEX
  5
12c
  8
Layer_0
  10
212.76212
  20
296.93213
  0
VERTEX
  5
12d
  8
Layer_0
  10
212.54294
  20
295.05353
  0
VERTEX
  5
12e
  8
Layer_0
  10
212.40672
  20
293.92834
  0
VERTEX
  5
12f
  8
Layer_0
  10
212.28244
  20
292.94223
  0
VERTEX
  5
130
  8
Layer_0
  10
212.17351
  20
292.12726
  0
VERTEX
  5
131
  8
Layer_0
  10
212.1259
  20
291.79388
  0
VERTEX
  5
132
  8
Layer_0
  10
211.98892
  20
290.86285
  0
VERTEX
  5
133
  8
Layer_0
  10
209.27155
  20
291.13757
  0
VERTEX
  5
134
  8
Layer_0
  10
208.55688
  20
296.16403
  0
VERTEX
  5
135
  8
Layer_0
  10
207.96597
  20
300.30328
  0
VERTEX
  5
136
  8
Layer_0
  10
207.70361
  20
302.08667
  0
VERTEX
  5
137
  8
Layer_0
  10
207.64252
  20
302.48053
  0
VERTEX
  5
138
  8
Layer_0
  10
207.59207
  20
302.79004
  0
VERTEX
  5
139
  8
Layer_0
  10
207.55075
  20
303.02469
  0
VERTEX
  5
13a
  8
Layer_0
  10
207.51706
  20
303.19412
  0
VERTEX
  5
13b
  8
Layer_0
  10
207.48947
  20
303.30786
  0
VERTEX
  5
13c
  8
Layer_0
  10
207.46646
  20
303.37549
  0
VERTEX
  5
13d
  8
Layer_0
  10
207.44653
  20
303.40656
  0
VERTEX
  5
13e
  8
Layer_0
  10
207.42813
  20
303.41061
  0
VERTEX
  5
13f
  8
Layer_0
  10
207.40977
  20
303.39728
  0
VERTEX
  5
140
  8
Layer_0
  10
207.39691
  20
303.35785
  0
VERTEX
  5
141
  8
Layer_0
  10
207.3772
  20
303.26031
  0
VERTEX
  5
142
  8
Layer_0
  10
207.35106
  20
303.10767
  0
VERTEX
  5
143
  8
Layer_0
  10
207.31888
  20
302.90295
  0
VERTEX
  5
144
  8
Layer_0
  10
207.2381
  20
302.34933
  0
VERTEX
  5
145
  8
Layer_0
  10
207.13814
  20
301.62378
  0
VERTEX
  5
146
  8
Layer_0
  10
206.95935
  20
300.26605
  0
VERTEX
  5
147
  8
Layer_0
  10
206.75577
  20
298.65775
  0
VERTEX
  5
148
  8
Layer_0
  10
206.46806
  20
296.31613
  0
VERTEX
  5
149
  8
Layer_0
  10
206.33116
  20
295.22104
  0
VERTEX
  5
14a
  8
Layer_0
  10
206.14548
  20
293.77301
  0
VERTEX
  5
14b
  8
Layer_0
  10
205.99307
  20
292.63104
  0
VERTEX
  5
14c
  8
Layer_0
  10
205.91525
  20
292.08008
  0
VERTEX
  5
14d
  8
Layer_0
  10
205.8602
  20
291.72562
  0
VERTEX
  5
14e
  8
Layer_0
  10
205.84222
  20
291.62961
  0
VERTEX
  5
14f
  8
Layer_0
  10
205.83116
  20
291.5918
  0
VERTEX
  5
150
  8
Layer_0
  10
205.76952
  20
291.55817
  0
VERTEX
  5
151
  8
Layer_0
  10
205.67088
  20
291.54126
  0
VERTEX
  5
152
  8
Layer_0
  10
205.54091
  20
291.53958
  0
VERTEX
  5
153
  8
Layer_0
  10
205.38524
  20
291.55154
  0
VERTEX
  5
154
  8
Layer_0
  10
205.01945
  20
291.61041
  0
VERTEX
  5
155
  8
Layer_0
  10
204.61876
  20
291.7056
  0
VERTEX
  5
156
  8
Layer_0
  10
204.22838
  20
291.82483
  0
VERTEX
  5
157
  8
Layer_0
  10
203.89354
  20
291.95584
  0
VERTEX
  5
158
  8
Layer_0
  10
203.76108
  20
292.02194
  0
VERTEX
  5
159
  8
Layer_0
  10
203.65947
  20
292.0864
  0
VERTEX
  5
15a
  8
Layer_0
  10
203.59436
  20
292.14764
  0
VERTEX
  5
15b
  8
Layer_0
  10
203.57141
  20
292.20422
  0
VERTEX
  5
15c
  8
Layer_0
  10
203.5762
  20
292.27887
  0
VERTEX
  5
15d
  8
Layer_0
  10
203.61313
  20
292.65488
  0
VERTEX
  5
15e
  8
Layer_0
  10
203.72977
  20
293.72318
  0
VERTEX
  5
15f
  8
Layer_0
  10
204.05585
  20
296.57172
  0
VERTEX
  5
160
  8
Layer_0
  10
204.68092
  20
301.87491
  0
VERTEX
  5
161
  8
Layer_0
  10
204.93498
  20
304.0578
  0
VERTEX
  5
162
  8
Layer_0
  10
205.20825
  20
306.47046
  0
VERTEX
  5
163
  8
Layer_0
  10
205.34752
  20
307.7583
  0
VERTEX
  5
164
  8
Layer_0
  10
205.40195
  20
308.30499
  0
VERTEX
  5
165
  8
Layer_0
  10
205.41621
  20
308.47205
  0
VERTEX
  5
166
  8
Layer_0
  10
205.42841
  20
308.69196
  0
VERTEX
  5
167
  8
Layer_0
  10
205.45033
  20
308.7937
  0
VERTEX
  5
168
  8
Layer_0
  10
205.48926
  20
308.86917
  0
VERTEX
  5
169
  8
Layer_0
  10
205.54745
  20
308.91962
  0
VERTEX
  5
16a
  8
Layer_0
  10
205.6272
  20
308.94638
  0
VERTEX
  5
16b
  8
Layer_0
  10
205.73077
  20
308.95065
  0
VERTEX
  5
16c
  8
Layer_0
  10
205.86044
  20
308.93375
  0
VERTEX
  5
16d
  8
Layer_0
  10
206.01849
  20
308.89691
  0
VERTEX
  5
16e
  8
Layer_0
  10
206.31226
  20
308.83435
  0
VERTEX
  5
16f
  8
Layer_0
  10
206.67203
  20
308.78198
  0
VERTEX
  5
170
  8
Layer_0
  10
207.05225
  20
308.7453
  0
VERTEX
  5
171
  8
Layer_0
  10
207.40739
  20
308.72974
  0
SEQEND
  0
POLYLINE
  5
173
  8
Layer_0
  62
0
  70
1
  66
1
  10
0
  20
0
  30
0
  0
VERTEX
  5
173
  8
Layer_0
  10
184.91154
  20
308.08966
  0
VERTEX
  5
174
  8
Layer_0
  10
185.29231
  20
307.89703
  0
VERTEX
  5
175
  8
Layer_0
  10
185.62389
  20
307.65259
  0
VERTEX
  5
176
  8
Layer_0
  10
185.91197
  20
307.34625
  0
VERTEX
  5
177
  8
Layer_0
  10
186.16226
  20
306.96777
  0
VERTEX
  5
178
  8
Layer_0
  10
186.38043
  20
306.50696
  0
VERTEX
  5
179
  8
Layer_0
  10
186.57214
  20
305.9537
  0
VERTEX
  5
17a
  8
Layer_0
  10
186.65987
  20
305.63919
  0
VERTEX
  5
17b
  8
Layer_0
  10
186.74313
  20
305.29773
  0
VERTEX
  5
17c
  8
Layer_0
  10
186.8226
  20
304.92804
  0
VERTEX
  5
17d
  8
Layer_0
  10
186.89902
  20
304.52887
  0
VERTEX
  5
17e
  8
Layer_0
  10
187.00406
  20
303.84808
  0
VERTEX
  5
17f
  8
Layer_0
  10
187.06012
  20
303.23022
  0
VERTEX
  5
180
  8
Layer_0
  10
187.06659
  20
302.67154
  0
VERTEX
  5
181
  8
Layer_0
  10
187.02295
  20
302.16821
  0
VERTEX
  5
182
  8
Layer_0
  10
186.92862
  20
301.71646
  0
VERTEX
  5
183
  8
Layer_0
  10
186.7831
  20
301.3125
  0
VERTEX
  5
184
  8
Layer_0
  10
186.5858
  20
300.95255
  0
VERTEX
  5
185
  8
Layer_0
  10
186.33623
  20
300.63281
  0
VERTEX
  5
186
  8
Layer_0
  10
186.17001
  20
300.44891
  0
VERTEX
  5
187
  8
Layer_0
  10
186.05328
  20
300.30481
  0
VERTEX
  5
188
  8
Layer_0
  10
185.98782
  20
300.18915
  0
VERTEX
  5
189
  8
Layer_0
  10
185.97537
  20
300.09052
  0
VERTEX
  5
18a
  8
Layer_0
  10
186.01773
  20
299.9975
  0
VERTEX
  5
18b
  8
Layer_0
  10
186.1167
  20
299.89871
  0
VERTEX
  5
18c
  8
Layer_0
  10
186.27406
  20
299.78278
  0
VERTEX
  5
18d
  8
Layer_0
  10
186.49156
  20
299.63824
  0
VERTEX
  5
18e
  8
Layer_0
  10
186.82977
  20
299.38208
  0
VERTEX
  5
18f
  8
Layer_0
  10
187.12094
  20
299.0787
  0
VERTEX
  5
190
  8
Layer_0
  10
187.37257
  20
298.70975
  0
VERTEX
  5
191
  8
Layer_0
  10
187.59229
  20
298.25684
  0
VERTEX
  5
192
  8
Layer_0
  10
187.69254
  20
297.99316
  0
VERTEX
  5
193
  8
Layer_0
  10
187.7876
  20
297.70157
  0
VERTEX
  5
194
  8
Layer_0
  10
187.87848
  20
297.37982
  0
VERTEX
  5
195
  8
Layer_0
  10
187.96609
  20
297.02563
  0
VERTEX
  5
196
  8
Layer_0
  10
188.05141
  20
296.63663
  0
VERTEX
  5
197
  8
Layer_0
  10
188.13535
  20
296.21057
  0
VERTEX
  5
198
  8
Layer_0
  10
188.21889
  20
295.74518
  0
VERTEX
  5
199
  8
Layer_0
  10
188.38727
  20
294.72452
  0
VERTEX
  5
19a
  8
Layer_0
  10
188.47275
  20
294.22858
  0
VERTEX
  5
19b
  8
Layer_0
  10
188.55701
  20
293.7623
  0
VERTEX
  5
19c
  8
Layer_0
  10
188.6377
  20
293.33774
  0
VERTEX
  5
19d
  8
Layer_0
  10
188.71246
  20
292.96698
  0
VERTEX
  5
19e
  8
Layer_0
  10
188.77896
  20
292.66205
  0
VERTEX
  5
19f
  8
Layer_0
  10
188.83481
  20
292.43506
  0
VERTEX
  5
1a0
  8
Layer_0
  10
188.91318
  20
292.17844
  0
VERTEX
  5
1a1
  8
Layer_0
  10
188.91071
  20
292.07849
  0
VERTEX
  5
1a2
  8
Layer_0
  10
188.8645
  20
291.99518
  0
VERTEX
  5
1a3
  8
Layer_0
  10
188.76895
  20
291.92548
  0
VERTEX
  5
1a4
  8
Layer_0
  10
188.61832
  20
291.86649
  0
VERTEX
  5
1a5
  8
Layer_0
  10
188.40689
  20
291.81519
  0
VERTEX
  5
1a6
  8
Layer_0
  10
188.12903
  20
291.76862
  0
VERTEX
  5
1a7
  8
Layer_0
  10
187.77901
  20
291.72379
  0
VERTEX
  5
1a8
  8
Layer_0
  10
187.27066
  20
291.68079
  0
VERTEX
  5
1a9
  8
Layer_0
  10
186.82616
  20
291.67261
  0
VERTEX
  5
1aa
  8
Layer_0
  10
186.64282
  20
291.68124
  0
VERTEX
  5
1ab
  8
Layer_0
  10
186.49339
  20
291.69818
  0
VERTEX
  5
1ac
  8
Layer_0
  10
186.38385
  20
291.72327
  0
VERTEX
  5
1ad
  8
Layer_0
  10
186.32019
  20
291.75641
  0
VERTEX
  5
1ae
  8
Layer_0
  10
186.2738
  20
291.84644
  0
VERTEX
  5
1af
  8
Layer_0
  10
186.21376
  20
292.03467
  0
VERTEX
  5
1b0
  8
Layer_0
  10
186.14258
  20
292.30951
  0
VERTEX
  5
1b1
  8
Layer_0
  10
186.06276
  20
292.65939
  0
VERTEX
  5
1b2
  8
Layer_0
  10
185.97682
  20
293.07275
  0
VERTEX
  5
1b3
  8
Layer_0
  10
185.88727
  20
293.53796
  0
VERTEX
  5
1b4
  8
Layer_0
  10
185.79663
  20
294.04352
  0
VERTEX
  5
1b5
  8
Layer_0
  10
185.70741
  20
294.57782
  0
VERTEX
  5
1b6
  8
Layer_0
  10
185.61136
  20
295.13263
  0
VERTEX
  5
1b7
  8
Layer_0
  10
185.50682
  20
295.66101
  0
VERTEX
  5
1b8
  8
Layer_0
  10
185.39665
  20
296.15234
  0
VERTEX
  5
1b9
  8
Layer_0
  10
185.28372
  20
296.59607
  0
VERTEX
  5
1ba
  8
Layer_0
  10
185.17093
  20
296.98163
  0
VERTEX
  5
1bb
  8
Layer_0
  10
185.06113
  20
297.29852
  0
VERTEX
  5
1bc
  8
Layer_0
  10
184.95721
  20
297.53607
  0
VERTEX
  5
1bd
  8
Layer_0
  10
184.86206
  20
297.68378
  0
VERTEX
  5
1be
  8
Layer_0
  10
184.76587
  20
297.76709
  0
VERTEX
  5
1bf
  8
Layer_0
  10
184.63686
  20
297.84424
  0
VERTEX
  5
1c0
  8
Layer_0
  10
184.48047
  20
297.91467
  0
VERTEX
  5
1c1
  8
Layer_0
  10
184.30206
  20
297.97775
  0
VERTEX
  5
1c2
  8
Layer_0
  10
183.90094
  20
298.07962
  0
VERTEX
  5
1c3
  8
Layer_0
  10
183.47676
  20
298.14514
  0
VERTEX
  5
1c4
  8
Layer_0
  10
183.07275
  20
298.16962
  0
VERTEX
  5
1c5
  8
Layer_0
  10
182.73215
  20
298.14835
  0
VERTEX
  5
1c6
  8
Layer_0
  10
182.59915
  20
298.11908
  0
VERTEX
  5
1c7
  8
Layer_0
  10
182.49823
  20
298.07663
  0
VERTEX
  5
1c8
  8
Layer_0
  10
182.4348
  20
298.02039
  0
VERTEX
  5
1c9
  8
Layer_0
  10
182.41425
  20
297.94977
  0
VERTEX
  5
1ca
  8
Layer_0
  10
182.42545
  20
297.84326
  0
VERTEX
  5
1cb
  8
Layer_0
  10
182.50058
  20
297.27951
  0
VERTEX
  5
1cc
  8
Layer_0
  10
182.63264
  20
296.34265
  0
VERTEX
  5
1cd
  8
Layer_0
  10
182.96245
  20
294.07251
  0
VERTEX
  5
1ce
  8
Layer_0
  10
183.0159
  20
293.68805
  0
VERTEX
  5
1cf
  8
Layer_0
  10
183.06285
  20
293.3327
  0
VERTEX
  5
1d0
  8
Layer_0
  10
183.1033
  20
293.00601
  0
VERTEX
  5
1d1
  8
Layer_0
  10
183.13733
  20
292.70743
  0
VERTEX
  5
1d2
  8
Layer_0
  10
183.16492
  20
292.43646
  0
VERTEX
  5
1d3
  8
Layer_0
  10
183.18613
  20
292.1926
  0
VERTEX
  5
1d4
  8
Layer_0
  10
183.20096
  20
291.97534
  0
VERTEX
  5
1d5
  8
Layer_0
  10
183.20946
  20
291.78418
  0
VERTEX
  5
1d6
  8
Layer_0
  10
183.21167
  20
291.61859
  0
VERTEX
  5
1d7
  8
Layer_0
  10
183.20758
  20
291.47809
  0
VERTEX
  5
1d8
  8
Layer_0
  10
183.19725
  20
291.36218
  0
VERTEX
  5
1d9
  8
Layer_0
  10
183.15796
  20
291.20209
  0
VERTEX
  5
1da
  8
Layer_0
  10
183.09402
  20
291.13422
  0
VERTEX
  5
1db
  8
Layer_0
  10
183.01572
  20
291.11328
  0
VERTEX
  5
1dc
  8
Layer_0
  10
182.90382
  20
291.08728
  0
VERTEX
  5
1dd
  8
Layer_0
  10
182.60019
  20
291.02429
  0
VERTEX
  5
1de
  8
Layer_0
  10
182.22491
  20
290.95349
  0
VERTEX
  5
1df
  8
Layer_0
  10
181.81984
  20
290.88309
  0
VERTEX
  5
1e0
  8
Layer_0
  10
181.52567
  20
290.83838
  0
VERTEX
  5
1e1
  8
Layer_0
  10
181.293
  20
290.81534
  0
VERTEX
  5
1e2
  8
Layer_0
  10
181.11319
  20
290.81744
  0
VERTEX
  5
1e3
  8
Layer_0
  10
180.97748
  20
290.84808
  0
VERTEX
  5
1e4
  8
Layer_0
  10
180.8772
  20
290.91077
  0
VERTEX
  5
1e5
  8
Layer_0
  10
180.80362
  20
291.00891
  0
VERTEX
  5
1e6
  8
Layer_0
  10
180.74805
  20
291.146
  0
VERTEX
  5
1e7
  8
Layer_0
  10
180.70178
  20
291.32544
  0
VERTEX
  5
1e8
  8
Layer_0
  10
180.67326
  20
291.46918
  0
VERTEX
  5
1e9
  8
Layer_0
  10
180.6351
  20
291.68433
  0
VERTEX
  5
1ea
  8
Layer_0
  10
180.588
  20
291.966
  0
VERTEX
  5
1eb
  8
Layer_0
  10
180.46973
  20
292.70959
  0
VERTEX
  5
1ec
  8
Layer_0
  10
180.32399
  20
293.6611
  0
VERTEX
  5
1ed
  8
Layer_0
  10
180.06598
  20
295.39307
  0
VERTEX
  5
1ee
  8
Layer_0
  10
179.67744
  20
298.06702
  0
VERTEX
  5
1ef
  8
Layer_0
  10
179.47652
  20
299.47281
  0
VERTEX
  5
1f0
  8
Layer_0
  10
179.27852
  20
300.87265
  0
VERTEX
  5
1f1
  8
Layer_0
  10
179.089
  20
302.22766
  0
VERTEX
  5
1f2
  8
Layer_0
  10
178.91348
  20
303.49893
  0
VERTEX
  5
1f3
  8
Layer_0
  10
178.68848
  20
305.16388
  0
VERTEX
  5
1f4
  8
Layer_0
  10
178.5721
  20
306.05579
  0
VERTEX
  5
1f5
  8
Layer_0
  10
178.48907
  20
306.72791
  0
VERTEX
  5
1f6
  8
Layer_0
  10
178.46179
  20
306.96942
  0
VERTEX
  5
1f7
  8
Layer_0
  10
178.44492
  20
307.14136
  0
VERTEX
  5
1f8
  8
Layer_0
  10
178.43913
  20
307.23892
  0
VERTEX
  5
1f9
  8
Layer_0
  10
178.44916
  20
307.43201
  0
VERTEX
  5
1fa
  8
Layer_0
  10
178.49063
  20
307.58585
  0
VERTEX
  5
1fb
  8
Layer_0
  10
178.58066
  20
307.70825
  0
VERTEX
  5
1fc
  8
Layer_0
  10
178.73631
  20
307.80719
  0
VERTEX
  5
1fd
  8
Layer_0
  10
178.84409
  20
307.85028
  0
VERTEX
  5
1fe
  8
Layer_0
  10
178.9747
  20
307.8905
  0
VERTEX
  5
1ff
  8
Layer_0
  10
179.13025
  20
307.9288
  0
VERTEX
  5
200
  8
Layer_0
  10
179.3129
  20
307.96616
  0
VERTEX
  5
201
  8
Layer_0
  10
179.52477
  20
308.00357
  0
VERTEX
  5
202
  8
Layer_0
  10
179.76801
  20
308.04202
  0
VERTEX
  5
203
  8
Layer_0
  10
180.04475
  20
308.08252
  0
VERTEX
  5
204
  8
Layer_0
  10
180.862
  20
308.19391
  0
VERTEX
  5
205
  8
Layer_0
  10
181.3215
  20
308.2525
  0
VERTEX
  5
206
  8
Layer_0
  10
181.73904
  20
308.30191
  0
VERTEX
  5
207
  8
Layer_0
  10
182.11804
  20
308.34201
  0
VERTEX
  5
208
  8
Layer_0
  10
182.46198
  20
308.3728
  0
VERTEX
  5
209
  8
Layer_0
  10
182.77425
  20
308.39429
  0
VERTEX
  5
20a
  8
Layer_0
  10
183.0583
  20
308.4064
  0
VERTEX
  5
20b
  8
Layer_0
  10
183.31757
  20
308.40912
  0
VERTEX
  5
20c
  8
Layer_0
  10
183.77548
  20
308.38629
  0
VERTEX
  5
20d
  8
Layer_0
  10
184.17545
  20
308.32556
  0
VERTEX
  5
20e
  8
Layer_0
  10
184.54498
  20
308.22678
  0
VERTEX
  5
20f
  8
Layer_0
  10
184.91154
  20
308.08966
  0
SEQEND
  0
POLYLINE
  5
211
  8
Layer_0
  62
0
  70
1
  66
1
  10
0
  20
0
  30
0
  0
VERTEX
  5
211
  8
Layer_0
  10
223.80951
  20
305.94196
  0
VERTEX
  5
212
  8
Layer_0
  10
226.98412
  20
305.09448
  0
VERTEX
  5
213
  8
Layer_0
  10
226.94463
  20
304.26254
  0
VERTEX
  5
214
  8
Layer_0
  10
226.93027
  20
303.98853
  0
VERTEX
  5
215
  8
Layer_0
  10
226.91341
  20
303.74783
  0
VERTEX
  5
216
  8
Layer_0
  10
226.892
  20
303.539
  0
VERTEX
  5
217
  8
Layer_0
  10
226.86401
  20
303.36053
  0
VERTEX
  5
218
  8
Layer_0
  10
226.82736
  20
303.21094
  0
VERTEX
  5
219
  8
Layer_0
  10
226.78
  20
303.08865
  0
VERTEX
  5
21a
  8
Layer_0
  10
226.71985
  20
302.99228
  0
VERTEX
  5
21b
  8
Layer_0
  10
226.6449
  20
302.92026
  0
VERTEX
  5
21c
  8
Layer_0
  10
226.55305
  20
302.87112
  0
VERTEX
  5
21d
  8
Layer_0
  10
226.44226
  20
302.84338
  0
VERTEX
  5
21e
  8
Layer_0
  10
226.31047
  20
302.83551
  0
VERTEX
  5
21f
  8
Layer_0
  10
226.15562
  20
302.84607
  0
VERTEX
  5
220
  8
Layer_0
  10
225.97568
  20
302.8735
  0
VERTEX
  5
221
  8
Layer_0
  10
225.76854
  20
302.91638
  0
VERTEX
  5
222
  8
Layer_0
  10
225.53217
  20
302.97318
  0
VERTEX
  5
223
  8
Layer_0
  10
224.91176
  20
303.13135
  0
VERTEX
  5
224
  8
Layer_0
  10
224.61667
  20
303.19629
  0
VERTEX
  5
225
  8
Layer_0
  10
224.37479
  20
303.2373
  0
VERTEX
  5
226
  8
Layer_0
  10
224.18159
  20
303.25455
  0
VERTEX
  5
227
  8
Layer_0
  10
224.03262
  20
303.24817
  0
VERTEX
  5
228
  8
Layer_0
  10
223.92337
  20
303.21832
  0
VERTEX
  5
229
  8
Layer_0
  10
223.84937
  20
303.16513
  0
VERTEX
  5
22a
  8
Layer_0
  10
223.80609
  20
303.08875
  0
VERTEX
  5
22b
  8
Layer_0
  10
223.74986
  20
302.88904
  0
VERTEX
  5
22c
  8
Layer_0
  10
223.34322
  20
301.35077
  0
VERTEX
  5
22d
  8
Layer_0
  10
221.61975
  20
294.70065
  0
VERTEX
  5
22e
  8
Layer_0
  10
221.28926
  20
293.43466
  0
VERTEX
  5
22f
  8
Layer_0
  10
220.98584
  20
292.28348
  0
VERTEX
  5
230
  8
Layer_0
  10
220.59787
  20
290.83319
  0
VERTEX
  5
231
  8
Layer_0
  10
220.39499
  20
290.09152
  0
VERTEX
  5
232
  8
Layer_0
  10
220.24545
  20
289.56259
  0
VERTEX
  5
233
  8
Layer_0
  10
220.19305
  20
289.38666
  0
VERTEX
  5
234
  8
Layer_0
  10
220.1568
  20
289.27441
  0
VERTEX
  5
235
  8
Layer_0
  10
220.13765
  20
289.22937
  0
VERTEX
  5
236
  8
Layer_0
  10
220.09251
  20
289.21564
  0
VERTEX
  5
237
  8
Layer_0
  10
220.00186
  20
289.21509
  0
VERTEX
  5
238
  8
Layer_0
  10
219.87119
  20
289.22681
  0
VERTEX
  5
239
  8
Layer_0
  10
219.7059
  20
289.24991
  0
VERTEX
  5
23a
  8
Layer_0
  10
219.29338
  20
289.32693
  0
VERTEX
  5
23b
  8
Layer_0
  10
218.80795
  20
289.43933
  0
VERTEX
  5
23c
  8
Layer_0
  10
218.48839
  20
289.52527
  0
VERTEX
  5
23d
  8
Layer_0
  10
218.22784
  20
289.60822
  0
VERTEX
  5
23e
  8
Layer_0
  10
218.02274
  20
289.69061
  0
VERTEX
  5
23f
  8
Layer_0
  10
217.86945
  20
289.77487
  0
VERTEX
  5
240
  8
Layer_0
  10
217.76439
  20
289.8634
  0
VERTEX
  5
241
  8
Layer_0
  10
217.70393
  20
289.95862
  0
VERTEX
  5
242
  8
Layer_0
  10
217.68448
  20
290.06293
  0
VERTEX
  5
243
  8
Layer_0
  10
217.70241
  20
290.17877
  0
VERTEX
  5
244
  8
Layer_0
  10
217.72879
  20
290.27405
  0
VERTEX
  5
245
  8
Layer_0
  10
217.99915
  20
291.29929
  0
VERTEX
  5
246
  8
Layer_0
  10
220.20731
  20
299.84149
  0
VERTEX
  5
247
  8
Layer_0
  10
221.25793
  20
303.95798
  0
VERTEX
  5
248
  8
Layer_0
  10
221.29628
  20
304.12039
  0
VERTEX
  5
249
  8
Layer_0
  10
221.27592
  20
304.13708
  0
VERTEX
  5
24a
  8
Layer_0
  10
221.21756
  20
304.1593
  0
VERTEX
  5
24b
  8
Layer_0
  10
221.12531
  20
304.18604
  0
VERTEX
  5
24c
  8
Layer_0
  10
221.00327
  20
304.21646
  0
VERTEX
  5
24d
  8
Layer_0
  10
220.68611
  20
304.28424
  0
VERTEX
  5
24e
  8
Layer_0
  10
220.29881
  20
304.35486
  0
VERTEX
  5
24f
  8
Layer_0
  10
220.01556
  20
304.4046
  0
VERTEX
  5
250
  8
Layer_0
  10
219.7653
  20
304.45352
  0
VERTEX
  5
251
  8
Layer_0
  10
219.54655
  20
304.50342
  0
VERTEX
  5
252
  8
Layer_0
  10
219.35785
  20
304.55609
  0
VERTEX
  5
253
  8
Layer_0
  10
219.19772
  20
304.61328
  0
VERTEX
  5
254
  8
Layer_0
  10
219.06476
  20
304.67676
  0
VERTEX
  5
255
  8
Layer_0
  10
218.95743
  20
304.74835
  0
VERTEX
  5
256
  8
Layer_0
  10
218.87433
  20
304.82977
  0
VERTEX
  5
257
  8
Layer_0
  10
218.7749
  20
305.0293
  0
VERTEX
  5
258
  8
Layer_0
  10
218.75478
  20
305.28955
  0
VERTEX
  5
259
  8
Layer_0
  10
218.7708
  20
305.4469
  0
VERTEX
  5
25a
  8
Layer_0
  10
218.80228
  20
305.62473
  0
VERTEX
  5
25b
  8
Layer_0
  10
218.84775
  20
305.82489
  0
VERTEX
  5
25c
  8
Layer_0
  10
218.90573
  20
306.04907
  0
VERTEX
  5
25d
  8
Layer_0
  10
219.00076
  20
306.388
  0
VERTEX
  5
25e
  8
Layer_0
  10
219.0862
  20
306.64603
  0
VERTEX
  5
25f
  8
Layer_0
  10
219.17134
  20
306.8316
  0
VERTEX
  5
260
  8
Layer_0
  10
219.26552
  20
306.95325
  0
VERTEX
  5
261
  8
Layer_0
  10
219.37799
  20
307.01929
  0
VERTEX
  5
262
  8
Layer_0
  10
219.51807
  20
307.03821
  0
VERTEX
  5
263
  8
Layer_0
  10
219.69505
  20
307.01846
  0
VERTEX
  5
264
  8
Layer_0
  10
219.91821
  20
306.96851
  0
VERTEX
  5
265
  8
Layer_0
  10
220.86227
  20
306.7233
  0
VERTEX
  5
266
  8
Layer_0
  10
223.80951
  20
305.94196
  0
SEQEND
  0
POLYLINE
  5
268
  8
Layer_0
  62
0
  70
1
  66
1
  10
0
  20
0
  30
0
  0
VERTEX
  5
268
  8
Layer_0
  10
172.52274
  20
304.94574
  0
VERTEX
  5
269
  8
Layer_0
  10
172.82828
  20
304.64819
  0
VERTEX
  5
26a
  8
Layer_0
  10
173.08513
  20
304.33356
  0
VERTEX
  5
26b
  8
Layer_0
  10
173.20251
  20
304.15076
  0
VERTEX
  5
26c
  8
Layer_0
  10
173.31641
  20
303.9407
  0
VERTEX
  5
26d
  8
Layer_0
  10
173.42967
  20
303.69583
  0
VERTEX
  5
26e
  8
Layer_0
  10
173.54523
  20
303.40848
  0
VERTEX
  5
26f
  8
Layer_0
  10
173.66595
  20
303.07098
  0
VERTEX
  5
270
  8
Layer_0
  10
173.79474
  20
302.67572
  0
VERTEX
  5
271
  8
Layer_0
  10
173.93446
  20
302.215
  0
VERTEX
  5
272
  8
Layer_0
  10
174.08804
  20
301.68124
  0
VERTEX
  5
273
  8
Layer_0
  10
174.25833
  20
301.06677
  0
VERTEX
  5
274
  8
Layer_0
  10
174.44827
  20
300.36395
  0
VERTEX
  5
275
  8
Layer_0
  10
174.89856
  20
298.66266
  0
VERTEX
  5
276
  8
Layer_0
  10
175.18417
  20
297.5567
  0
VERTEX
  5
277
  8
Layer_0
  10
175.45067
  20
296.48737
  0
VERTEX
  5
278
  8
Layer_0
  10
175.69223
  20
295.48068
  0
VERTEX
  5
279
  8
Layer_0
  10
175.90298
  20
294.56284
  0
VERTEX
  5
27a
  8
Layer_0
  10
175.995
  20
294.14536
  0
VERTEX
  5
27b
  8
Layer_0
  10
176.07712
  20
293.75986
  0
VERTEX
  5
27c
  8
Layer_0
  10
176.14864
  20
293.40958
  0
VERTEX
  5
27d
  8
Layer_0
  10
176.20882
  20
293.09784
  0
VERTEX
  5
27e
  8
Layer_0
  10
176.25693
  20
292.82785
  0
VERTEX
  5
27f
  8
Layer_0
  10
176.29222
  20
292.60287
  0
VERTEX
  5
280
  8
Layer_0
  10
176.314
  20
292.42621
  0
VERTEX
  5
281
  8
Layer_0
  10
176.32149
  20
292.30103
  0
VERTEX
  5
282
  8
Layer_0
  10
176.29927
  20
291.92426
  0
VERTEX
  5
283
  8
Layer_0
  10
176.23309
  20
291.55859
  0
VERTEX
  5
284
  8
Layer_0
  10
176.12515
  20
291.20581
  0
VERTEX
  5
285
  8
Layer_0
  10
175.97762
  20
290.8678
  0
VERTEX
  5
286
  8
Layer_0
  10
175.79269
  20
290.54626
  0
VERTEX
  5
287
  8
Layer_0
  10
175.57254
  20
290.24316
  0
VERTEX
  5
288
  8
Layer_0
  10
175.31938
  20
289.96024
  0
VERTEX
  5
289
  8
Layer_0
  10
175.03539
  20
289.69934
  0
VERTEX
  5
28a
  8
Layer_0
  10
174.72275
  20
289.46228
  0
VERTEX
  5
28b
  8
Layer_0
  10
174.38364
  20
289.25092
  0
VERTEX
  5
28c
  8
Layer_0
  10
174.02028
  20
289.06708
  0
VERTEX
  5
28d
  8
Layer_0
  10
173.63483
  20
288.91257
  0
VERTEX
  5
28e
  8
Layer_0
  10
173.22946
  20
288.78925
  0
VERTEX
  5
28f
  8
Layer_0
  10
172.80643
  20
288.69885
  0
VERTEX
  5
290
  8
Layer_0
  10
172.36783
  20
288.64331
  0
VERTEX
  5
291
  8
Layer_0
  10
171.91594
  20
288.62436
  0
VERTEX
  5
292
  8
Layer_0
  10
171.33394
  20
288.65781
  0
VERTEX
  5
293
  8
Layer_0
  10
170.80496
  20
288.75961
  0
VERTEX
  5
294
  8
Layer_0
  10
170.32596
  20
288.93182
  0
VERTEX
  5
295
  8
Layer_0
  10
169.89389
  20
289.17651
  0
VERTEX
  5
296
  8
Layer_0
  10
169.50568
  20
289.49588
  0
VERTEX
  5
297
  8
Layer_0
  10
169.15828
  20
289.89191
  0
VERTEX
  5
298
  8
Layer_0
  10
168.84863
  20
290.36676
  0
VERTEX
  5
299
  8
Layer_0
  10
168.5737
  20
290.92258
  0
VERTEX
  5
29a
  8
Layer_0
  10
168.48817
  20
291.1315
  0
VERTEX
  5
29b
  8
Layer_0
  10
168.39655
  20
291.37668
  0
VERTEX
  5
29c
  8
Layer_0
  10
168.29942
  20
291.65552
  0
VERTEX
  5
29d
  8
Layer_0
  10
168.19742
  20
291.96545
  0
VERTEX
  5
29e
  8
Layer_0
  10
167.98117
  20
292.66812
  0
VERTEX
  5
29f
  8
Layer_0
  10
167.75266
  20
293.46387
  0
VERTEX
  5
2a0
  8
Layer_0
  10
167.51672
  20
294.33194
  0
VERTEX
  5
2a1
  8
Layer_0
  10
167.27824
  20
295.25156
  0
VERTEX
  5
2a2
  8
Layer_0
  10
167.04208
  20
296.20184
  0
VERTEX
  5
2a3
  8
Layer_0
  10
166.81306
  20
297.16211
  0
VERTEX
  5
2a4
  8
Layer_0
  10
166.59607
  20
298.11148
  0
VERTEX
  5
2a5
  8
Layer_0
  10
166.39594
  20
299.02927
  0
VERTEX
  5
2a6
  8
Layer_0
  10
166.21753
  20
299.89459
  0
VERTEX
  5
2a7
  8
Layer_0
  10
166.06569
  20
300.68674
  0
VERTEX
  5
2a8
  8
Layer_0
  10
166.00125
  20
301.04886
  0
VERTEX
  5
2a9
  8
Layer_0
  10
165.94528
  20
301.38486
  0
VERTEX
  5
2aa
  8
Layer_0
  10
165.89841
  20
301.69214
  0
VERTEX
  5
2ab
  8
Layer_0
  10
165.86119
  20
301.96814
  0
VERTEX
  5
2ac
  8
Layer_0
  10
165.83427
  20
302.21027
  0
VERTEX
  5
2ad
  8
Layer_0
  10
165.81824
  20
302.41589
  0
VERTEX
  5
2ae
  8
Layer_0
  10
165.81369
  20
302.5824
  0
VERTEX
  5
2af
  8
Layer_0
  10
165.82127
  20
302.70724
  0
VERTEX
  5
2b0
  8
Layer_0
  10
165.88547
  20
303.0564
  0
VERTEX
  5
2b1
  8
Layer_0
  10
165.98145
  20
303.38773
  0
VERTEX
  5
2b2
  8
Layer_0
  10
166.10838
  20
303.70065
  0
VERTEX
  5
2b3
  8
Layer_0
  10
166.26538
  20
303.99457
  0
VERTEX
  5
2b4
  8
Layer_0
  10
166.45157
  20
304.2688
  0
VERTEX
  5
2b5
  8
Layer_0
  10
166.66606
  20
304.52277
  0
VERTEX
  5
2b6
  8
Layer_0
  10
166.90799
  20
304.75583
  0
VERTEX
  5
2b7
  8
Layer_0
  10
167.1765
  20
304.96735
  0
VERTEX
  5
2b8
  8
Layer_0
  10
167.47069
  20
305.15671
  0
VERTEX
  5
2b9
  8
Layer_0
  10
167.78969
  20
305.3233
  0
VERTEX
  5
2ba
  8
Layer_0
  10
168.13263
  20
305.46649
  0
VERTEX
  5
2bb
  8
Layer_0
  10
168.49863
  20
305.58569
  0
VERTEX
  5
2bc
  8
Layer_0
  10
168.88681
  20
305.68021
  0
VERTEX
  5
2bd
  8
Layer_0
  10
169.29633
  20
305.74948
  0
VERTEX
  5
2be
  8
Layer_0
  10
169.72629
  20
305.79291
  0
VERTEX
  5
2bf
  8
Layer_0
  10
170.17581
  20
305.80975
  0
VERTEX
  5
2c0
  8
Layer_0
  10
170.59125
  20
305.80646
  0
VERTEX
  5
2c1
  8
Layer_0
  10
170.93793
  20
305.78577
  0
VERTEX
  5
2c2
  8
Layer_0
  10
171.23276
  20
305.74136
  0
VERTEX
  5
2c3
  8
Layer_0
  10
171.49274
  20
305.66705
  0
VERTEX
  5
2c4
  8
Layer_0
  10
171.73476
  20
305.55655
  0
VERTEX
  5
2c5
  8
Layer_0
  10
171.97581
  20
305.40369
  0
VERTEX
  5
2c6
  8
Layer_0
  10
172.23282
  20
305.20215
  0
VERTEX
  5
2c7
  8
Layer_0
  10
172.52274
  20
304.94574
  0
SEQEND
  0
POLYLINE
  5
2c9
  8
Layer_0
  62
0
  70
1
  66
1
  10
0
  20
0
  30
0
  0
VERTEX
  5
2c9
  8
Layer_0
  10
160.85129
  20
302.19653
  0
VERTEX
  5
2ca
  8
Layer_0
  10
160.94235
  20
301.97198
  0
VERTEX
  5
2cb
  8
Layer_0
  10
161.01758
  20
301.76965
  0
VERTEX
  5
2cc
  8
Layer_0
  10
161.07617
  20
301.58783
  0
VERTEX
  5
2cd
  8
Layer_0
  10
161.11731
  20
301.42474
  0
VERTEX
  5
2ce
  8
Layer_0
  10
161.14383
  20
301.14801
  0
VERTEX
  5
2cf
  8
Layer_0
  10
161.09061
  20
300.92566
  0
VERTEX
  5
2d0
  8
Layer_0
  10
160.951
  20
300.7439
  0
VERTEX
  5
2d1
  8
Layer_0
  10
160.71844
  20
300.58893
  0
VERTEX
  5
2d2
  8
Layer_0
  10
160.56525
  20
300.51715
  0
VERTEX
  5
2d3
  8
Layer_0
  10
160.38635
  20
300.4469
  0
VERTEX
  5
2d4
  8
Layer_0
  10
160.18094
  20
300.37646
  0
VERTEX
  5
2d5
  8
Layer_0
  10
159.94815
  20
300.30408
  0
VERTEX
  5
2d6
  8
Layer_0
  10
159.52658
  20
300.15704
  0
VERTEX
  5
2d7
  8
Layer_0
  10
159.18135
  20
299.99725
  0
VERTEX
  5
2d8
  8
Layer_0
  10
159.04849
  20
299.91858
  0
VERTEX
  5
2d9
  8
Layer_0
  10
158.94809
  20
299.8439
  0
VERTEX
  5
2da
  8
Layer_0
  10
158.88458
  20
299.7757
  0
VERTEX
  5
2db
  8
Layer_0
  10
158.86241
  20
299.71637
  0
VERTEX
  5
2dc
  8
Layer_0
  10
158.87561
  20
299.65524
  0
VERTEX
  5
2dd
  8
Layer_0
  10
158.91437
  20
299.52841
  0
VERTEX
  5
2de
  8
Layer_0
  10
158.97734
  20
299.33936
  0
VERTEX
  5
2df
  8
Layer_0
  10
159.06326
  20
299.09164
  0
VERTEX
  5
2e0
  8
Layer_0
  10
159.17081
  20
298.78876
  0
VERTEX
  5
2e1
  8
Layer_0
  10
159.44554
  20
298.03177
  0
VERTEX
  5
2e2
  8
Layer_0
  10
159.79111
  20
297.09653
  0
VERTEX
  5
2e3
  8
Layer_0
  10
160.19708
  20
296.01135
  0
VERTEX
  5
2e4
  8
Layer_0
  10
160.89648
  20
294.16431
  0
VERTEX
  5
2e5
  8
Layer_0
  10
161.40781
  20
292.82791
  0
VERTEX
  5
2e6
  8
Layer_0
  10
161.91441
  20
291.49265
  0
VERTEX
  5
2e7
  8
Layer_0
  10
162.37793
  20
290.23877
  0
VERTEX
  5
2e8
  8
Layer_0
  10
162.59056
  20
289.65109
  0
VERTEX
  5
2e9
  8
Layer_0
  10
162.78888
  20
289.09427
  0
VERTEX
  5
2ea
  8
Layer_0
  10
162.97166
  20
288.57184
  0
VERTEX
  5
2eb
  8
Layer_0
  10
163.13776
  20
288.08728
  0
VERTEX
  5
2ec
  8
Layer_0
  10
163.28595
  20
287.64404
  0
VERTEX
  5
2ed
  8
Layer_0
  10
163.41505
  20
287.24573
  0
VERTEX
  5
2ee
  8
Layer_0
  10
163.5239
  20
286.89575
  0
VERTEX
  5
2ef
  8
Layer_0
  10
163.6113
  20
286.59769
  0
VERTEX
  5
2f0
  8
Layer_0
  10
163.67606
  20
286.35498
  0
VERTEX
  5
2f1
  8
Layer_0
  10
163.71698
  20
286.17117
  0
VERTEX
  5
2f2
  8
Layer_0
  10
163.73288
  20
286.04974
  0
VERTEX
  5
2f3
  8
Layer_0
  10
163.72261
  20
285.9942
  0
VERTEX
  5
2f4
  8
Layer_0
  10
163.51517
  20
285.85199
  0
VERTEX
  5
2f5
  8
Layer_0
  10
163.22493
  20
285.71143
  0
VERTEX
  5
2f6
  8
Layer_0
  10
162.88293
  20
285.58112
  0
VERTEX
  5
2f7
  8
Layer_0
  10
162.52023
  20
285.46945
  0
VERTEX
  5
2f8
  8
Layer_0
  10
162.16782
  20
285.38501
  0
VERTEX
  5
2f9
  8
Layer_0
  10
161.85675
  20
285.3363
  0
VERTEX
  5
2fa
  8
Layer_0
  10
161.72641
  20
285.328
  0
VERTEX
  5
2fb
  8
Layer_0
  10
161.61807
  20
285.33185
  0
VERTEX
  5
2fc
  8
Layer_0
  10
161.53555
  20
285.34888
  0
VERTEX
  5
2fd
  8
Layer_0
  10
161.48279
  20
285.38013
  0
VERTEX
  5
2fe
  8
Layer_0
  10
161.45236
  20
285.42953
  0
VERTEX
  5
2ff
  8
Layer_0
  10
161.40128
  20
285.53409
  0
VERTEX
  5
300
  8
Layer_0
  10
161.33069
  20
285.69086
  0
VERTEX
  5
301
  8
Layer_0
  10
161.24178
  20
285.89691
  0
VERTEX
  5
302
  8
Layer_0
  10
161.01373
  20
286.44498
  0
VERTEX
  5
303
  8
Layer_0
  10
160.72659
  20
287.15466
  0
VERTEX
  5
304
  8
Layer_0
  10
160.38983
  20
288.00241
  0
VERTEX
  5
305
  8
Layer_0
  10
160.01292
  20
288.96454
  0
VERTEX
  5
306
  8
Layer_0
  10
159.60532
  20
290.01746
  0
VERTEX
  5
307
  8
Layer_0
  10
158.74255
  20
292.27588
  0
VERTEX
  5
308
  8
Layer_0
  10
157.55368
  20
295.3822
  0
VERTEX
  5
309
  8
Layer_0
  10
156.67844
  20
297.64581
  0
VERTEX
  5
30a
  8
Layer_0
  10
156.18469
  20
298.87872
  0
VERTEX
  5
30b
  8
Layer_0
  10
153.57675
  20
297.88779
  0
VERTEX
  5
30c
  8
Layer_0
  10
153.17725
  20
298.84393
  0
VERTEX
  5
30d
  8
Layer_0
  10
153.02213
  20
299.23053
  0
VERTEX
  5
30e
  8
Layer_0
  10
152.89511
  20
299.57629
  0
VERTEX
  5
30f
  8
Layer_0
  10
152.84622
  20
299.72205
  0
VERTEX
  5
310
  8
Layer_0
  10
152.80928
  20
299.84348
  0
VERTEX
  5
311
  8
Layer_0
  10
152.78592
  20
299.93582
  0
VERTEX
  5
312
  8
Layer_0
  10
152.77776
  20
299.99438
  0
VERTEX
  5
313
  8
Layer_0
  10
152.79732
  20
300.02179
  0
VERTEX
  5
314
  8
Layer_0
  10
152.85471
  20
300.06329
  0
VERTEX
  5
315
  8
Layer_0
  10
152.948
  20
300.1181
  0
VERTEX
  5
316
  8
Layer_0
  10
153.07523
  20
300.18527
  0
VERTEX
  5
317
  8
Layer_0
  10
153.2345
  20
300.26404
  0
VERTEX
  5
318
  8
Layer_0
  10
153.42387
  20
300.35358
  0
VERTEX
  5
319
  8
Layer_0
  10
153.64139
  20
300.45294
  0
VERTEX
  5
31a
  8
Layer_0
  10
153.88516
  20
300.56134
  0
VERTEX
  5
31b
  8
Layer_0
  10
154.44365
  20
300.80182
  0
VERTEX
  5
31c
  8
Layer_0
  10
155.08385
  20
301.06821
  0
VERTEX
  5
31d
  8
Layer_0
  10
155.79031
  20
301.3537
  0
VERTEX
  5
31e
  8
Layer_0
  10
156.54761
  20
301.65149
  0
VERTEX
  5
31f
  8
Layer_0
  10
160.38004
  20
303.14444
  0
VERTEX
  5
320
  8
Layer_0
  10
160.40096
  20
303.13055
  0
VERTEX
  5
321
  8
Layer_0
  10
160.43658
  20
303.07898
  0
VERTEX
  5
322
  8
Layer_0
  10
160.485
  20
302.99365
  0
VERTEX
  5
323
  8
Layer_0
  10
160.54428
  20
302.87842
  0
VERTEX
  5
324
  8
Layer_0
  10
160.68768
  20
302.57391
  0
VERTEX
  5
325
  8
Layer_0
  10
160.85129
  20
302.19653
  0
SEQEND
  0
POLYLINE
  5
327
  8
Layer_0
  62
0
  70
1
  66
1
  10
0
  20
0
  30
0
  0
VERTEX
  5
327
  8
Layer_0
  10
236.37216
  20
302.16483
  0
VERTEX
  5
328
  8
Layer_0
  10
236.80249
  20
301.91382
  0
VERTEX
  5
329
  8
Layer_0
  10
237.20187
  20
301.59674
  0
VERTEX
  5
32a
  8
Layer_0
  10
237.56216
  20
301.22577
  0
VERTEX
  5
32b
  8
Layer_0
  10
237.8752
  20
300.81311
  0
VERTEX
  5
32c
  8
Layer_0
  10
238.13286
  20
300.37091
  0
VERTEX
  5
32d
  8
Layer_0
  10
238.32698
  20
299.91147
  0
VERTEX
  5
32e
  8
Layer_0
  10
238.44943
  20
299.44693
  0
VERTEX
  5
32f
  8
Layer_0
  10
238.49205
  20
298.9895
  0
VERTEX
  5
330
  8
Layer_0
  10
238.4808
  20
298.8349
  0
VERTEX
  5
331
  8
Layer_0
  10
238.44791
  20
298.63501
  0
VERTEX
  5
332
  8
Layer_0
  10
238.39462
  20
298.39291
  0
VERTEX
  5
333
  8
Layer_0
  10
238.32219
  20
298.11176
  0
VERTEX
  5
334
  8
Layer_0
  10
238.23184
  20
297.79456
  0
VERTEX
  5
335
  8
Layer_0
  10
238.12485
  20
297.44446
  0
VERTEX
  5
336
  8
Layer_0
  10
238.00244
  20
297.06451
  0
VERTEX
  5
337
  8
Layer_0
  10
237.86588
  20
296.65778
  0
VERTEX
  5
338
  8
Layer_0
  10
237.5553
  20
295.77634
  0
VERTEX
  5
339
  8
Layer_0
  10
237.20306
  20
294.82483
  0
VERTEX
  5
33a
  8
Layer_0
  10
236.81917
  20
293.82791
  0
VERTEX
  5
33b
  8
Layer_0
  10
236.41362
  20
292.81024
  0
VERTEX
  5
33c
  8
Layer_0
  10
235.9964
  20
291.79651
  0
VERTEX
  5
33d
  8
Layer_0
  10
235.57748
  20
290.81131
  0
VERTEX
  5
33e
  8
Layer_0
  10
235.16687
  20
289.87936
  0
VERTEX
  5
33f
  8
Layer_0
  10
234.77452
  20
289.02533
  0
VERTEX
  5
340
  8
Layer_0
  10
234.58833
  20
288.63525
  0
VERTEX
  5
341
  8
Layer_0
  10
234.41046
  20
288.27386
  0
VERTEX
  5
342
  8
Layer_0
  10
234.24216
  20
287.94431
  0
VERTEX
  5
343
  8
Layer_0
  10
234.08469
  20
287.6496
  0
VERTEX
  5
344
  8
Layer_0
  10
233.93927
  20
287.39288
  0
VERTEX
  5
345
  8
Layer_0
  10
233.80716
  20
287.17719
  0
VERTEX
  5
346
  8
Layer_0
  10
233.68961
  20
287.00568
  0
VERTEX
  5
347
  8
Layer_0
  10
233.58788
  20
286.88135
  0
VERTEX
  5
348
  8
Layer_0
  10
233.34737
  20
286.64777
  0
VERTEX
  5
349
  8
Layer_0
  10
233.09299
  20
286.44379
  0
VERTEX
  5
34a
  8
Layer_0
  10
232.82629
  20
286.26868
  0
VERTEX
  5
34b
  8
Layer_0
  10
232.54884
  20
286.12164
  0
VERTEX
  5
34c
  8
Layer_0
  10
232.26218
  20
286.00195
  0
VERTEX
  5
34d
  8
Layer_0
  10
231.96788
  20
285.90878
  0
VERTEX
  5
34e
  8
Layer_0
  10
231.66748
  20
285.84137
  0
VERTEX
  5
34f
  8
Layer_0
  10
231.36255
  20
285.79898
  0
VERTEX
  5
350
  8
Layer_0
  10
230.74527
  20
285.78613
  0
VERTEX
  5
351
  8
Layer_0
  10
230.12854
  20
285.86401
  0
VERTEX
  5
352
  8
Layer_0
  10
229.52475
  20
286.02649
  0
VERTEX
  5
353
  8
Layer_0
  10
228.94638
  20
286.2674
  0
VERTEX
  5
354
  8
Layer_0
  10
228.40585
  20
286.5806
  0
VERTEX
  5
355
  8
Layer_0
  10
227.91563
  20
286.95987
  0
VERTEX
  5
356
  8
Layer_0
  10
227.48816
  20
287.39911
  0
VERTEX
  5
357
  8
Layer_0
  10
227.13586
  20
287.89212
  0
VERTEX
  5
358
  8
Layer_0
  10
226.99179
  20
288.15686
  0
VERTEX
  5
359
  8
Layer_0
  10
226.87122
  20
288.43274
  0
VERTEX
  5
35a
  8
Layer_0
  10
226.77563
  20
288.71899
  0
VERTEX
  5
35b
  8
Layer_0
  10
226.70663
  20
289.01483
  0
VERTEX
  5
35c
  8
Layer_0
  10
226.66577
  20
289.31949
  0
VERTEX
  5
35d
  8
Layer_0
  10
226.6546
  20
289.6322
  0
VERTEX
  5
35e
  8
Layer_0
  10
226.67467
  20
289.95221
  0
VERTEX
  5
35f
  8
Layer_0
  10
226.72754
  20
290.27872
  0
VERTEX
  5
360
  8
Layer_0
  10
226.76868
  20
290.44772
  0
VERTEX
  5
361
  8
Layer_0
  10
226.8288
  20
290.65765
  0
VERTEX
  5
362
  8
Layer_0
  10
226.90665
  20
290.90564
  0
VERTEX
  5
363
  8
Layer_0
  10
227.00105
  20
291.18875
  0
VERTEX
  5
364
  8
Layer_0
  10
227.11078
  20
291.50406
  0
VERTEX
  5
365
  8
Layer_0
  10
227.2346
  20
291.84863
  0
VERTEX
  5
366
  8
Layer_0
  10
227.37134
  20
292.2196
  0
VERTEX
  5
367
  8
Layer_0
  10
227.51974
  20
292.61411
  0
VERTEX
  5
368
  8
Layer_0
  10
227.84676
  20
293.46179
  0
VERTEX
  5
369
  8
Layer_0
  10
228.2059
  20
294.36844
  0
VERTEX
  5
36a
  8
Layer_0
  10
228.58749
  20
295.31073
  0
VERTEX
  5
36b
  8
Layer_0
  10
228.98183
  20
296.26538
  0
VERTEX
  5
36c
  8
Layer_0
  10
229.37917
  20
297.20911
  0
VERTEX
  5
36d
  8
Layer_0
  10
229.76979
  20
298.11859
  0
VERTEX
  5
36e
  8
Layer_0
  10
230.144
  20
298.97055
  0
VERTEX
  5
36f
  8
Layer_0
  10
230.4921
  20
299.7417
  0
VERTEX
  5
370
  8
Layer_0
  10
230.65331
  20
300.08972
  0
VERTEX
  5
371
  8
Layer_0
  10
230.80434
  20
300.40875
  0
VERTEX
  5
372
  8
Layer_0
  10
230.94398
  20
300.69598
  0
VERTEX
  5
373
  8
Layer_0
  10
231.07103
  20
300.94839
  0
VERTEX
  5
374
  8
Layer_0
  10
231.18425
  20
301.16315
  0
VERTEX
  5
375
  8
Layer_0
  10
231.28244
  20
301.33734
  0
VERTEX
  5
376
  8
Layer_0
  10
231.36438
  20
301.46799
  0
VERTEX
  5
377
  8
Layer_0
  10
231.42888
  20
301.55228
  0
VERTEX
  5
378
  8
Layer_0
  10
231.67276
  20
301.79861
  0
VERTEX
  5
379
  8
Layer_0
  10
231.92513
  20
302.01718
  0
VERTEX
  5
37a
  8
Layer_0
  10
232.18602
  20
302.20795
  0
VERTEX
  5
37b
  8
Layer_0
  10
232.45547
  20
302.37103
  0
VERTEX
  5
37c
  8
Layer_0
  10
232.73354
  20
302.50629
  0
VERTEX
  5
37d
  8
Layer_0
  10
233.02026
  20
302.61389
  0
VERTEX
  5
37e
  8
Layer_0
  10
233.31566
  20
302.69373
  0
VERTEX
  5
37f
  8
Layer_0
  10
233.61978
  20
302.74582
  0
VERTEX
  5
380
  8
Layer_0
  10
233.93268
  20
302.77017
  0
VERTEX
  5
381
  8
Layer_0
  10
234.25441
  20
302.76685
  0
VERTEX
  5
382
  8
Layer_0
  10
234.58499
  20
302.73578
  0
VERTEX
  5
383
  8
Layer_0
  10
234.92447
  20
302.677
  0
VERTEX
  5
384
  8
Layer_0
  10
235.27287
  20
302.59052
  0
VERTEX
  5
385
  8
Layer_0
  10
235.63026
  20
302.47632
  0
VERTEX
  5
386
  8
Layer_0
  10
235.99667
  20
302.33441
  0
VERTEX
  5
387
  8
Layer_0
  10
236.37216
  20
302.16483
  0
SEQEND
  0
POLYLINE
  5
389
  8
Layer_0
  62
0
  70
1
  66
1
  10
0
  20
0
  30
0
  0
VERTEX
  5
389
  8
Layer_0
  10
152.26079
  20
290.71808
  0
VERTEX
  5
38a
  8
Layer_0
  10
152.36853
  20
290.49866
  0
VERTEX
  5
38b
  8
Layer_0
  10
152.4436
  20
290.30911
  0
VERTEX
  5
38c
  8
Layer_0
  10
152.4792
  20
290.16968
  0
VERTEX
  5
38d
  8
Layer_0
  10
152.46851
  20
290.10065
  0
VERTEX
  5
38e
  8
Layer_0
  10
152.392
  20
290.05655
  0
VERTEX
  5
38f
  8
Layer_0
  10
151.12016
  20
289.37714
  0
VERTEX
  5
390
  8
Layer_0
  10
149.49385
  20
288.52087
  0
VERTEX
  5
391
  8
Layer_0
  10
148.22949
  20
287.84027
  0
VERTEX
  5
392
  8
Layer_0
  10
146.92114
  20
287.10632
  0
VERTEX
  5
393
  8
Layer_0
  10
146.29871
  20
286.74695
  0
VERTEX
  5
394
  8
Layer_0
  10
145.72314
  20
286.40732
  0
VERTEX
  5
395
  8
Layer_0
  10
145.21375
  20
286.09848
  0
VERTEX
  5
396
  8
Layer_0
  10
144.78984
  20
285.83148
  0
VERTEX
  5
397
  8
Layer_0
  10
144.4198
  20
285.59537
  0
VERTEX
  5
398
  8
Layer_0
  10
144.06487
  20
285.37512
  0
VERTEX
  5
399
  8
Layer_0
  10
143.73347
  20
285.17551
  0
VERTEX
  5
39a
  8
Layer_0
  10
143.43408
  20
285.00137
  0
VERTEX
  5
39b
  8
Layer_0
  10
143.17517
  20
284.85754
  0
VERTEX
  5
39c
  8
Layer_0
  10
142.96518
  20
284.74884
  0
VERTEX
  5
39d
  8
Layer_0
  10
142.81259
  20
284.68008
  0
VERTEX
  5
39e
  8
Layer_0
  10
142.72591
  20
284.6561
  0
VERTEX
  5
39f
  8
Layer_0
  10
142.60774
  20
284.69769
  0
VERTEX
  5
3a0
  8
Layer_0
  10
142.4686
  20
284.81094
  0
VERTEX
  5
3a1
  8
Layer_0
  10
142.32584
  20
284.97855
  0
VERTEX
  5
3a2
  8
Layer_0
  10
142.19681
  20
285.18323
  0
VERTEX
  5
3a3
  8
Layer_0
  10
142.12314
  20
285.34601
  0
VERTEX
  5
3a4
  8
Layer_0
  10
142.09518
  20
285.49255
  0
VERTEX
  5
3a5
  8
Layer_0
  10
142.12219
  20
285.63416
  0
VERTEX
  5
3a6
  8
Layer_0
  10
142.21335
  20
285.78204
  0
VERTEX
  5
3a7
  8
Layer_0
  10
142.37784
  20
285.94757
  0
VERTEX
  5
3a8
  8
Layer_0
  10
142.62491
  20
286.142
  0
VERTEX
  5
3a9
  8
Layer_0
  10
142.78227
  20
286.25357
  0
VERTEX
  5
3aa
  8
Layer_0
  10
142.96371
  20
286.37659
  0
VERTEX
  5
3ab
  8
Layer_0
  10
143.17039
  20
286.51248
  0
VERTEX
  5
3ac
  8
Layer_0
  10
143.40347
  20
286.66266
  0
VERTEX
  5
3ad
  8
Layer_0
  10
143.57666
  20
286.77179
  0
VERTEX
  5
3ae
  8
Layer_0
  10
143.77528
  20
286.89401
  0
VERTEX
  5
3af
  8
Layer_0
  10
144.24097
  20
287.17343
  0
VERTEX
  5
3b0
  8
Layer_0
  10
144.78476
  20
287.49222
  0
VERTEX
  5
3b1
  8
Layer_0
  10
145.39087
  20
287.84167
  0
VERTEX
  5
3b2
  8
Layer_0
  10
146.72682
  20
288.59796
  0
VERTEX
  5
3b3
  8
Layer_0
  10
148.12254
  20
289.37274
  0
VERTEX
  5
3b4
  8
Layer_0
  10
148.80333
  20
289.74539
  0
VERTEX
  5
3b5
  8
Layer_0
  10
149.45168
  20
290.09656
  0
VERTEX
  5
3b6
  8
Layer_0
  10
150.05179
  20
290.41766
  0
VERTEX
  5
3b7
  8
Layer_0
  10
150.58791
  20
290.69995
  0
VERTEX
  5
3b8
  8
Layer_0
  10
150.82703
  20
290.82385
  0
VERTEX
  5
3b9
  8
Layer_0
  10
151.23752
  20
291.03168
  0
VERTEX
  5
3ba
  8
Layer_0
  10
151.40494
  20
291.11346
  0
VERTEX
  5
3bb
  8
Layer_0
  10
151.54449
  20
291.17902
  0
VERTEX
  5
3bc
  8
Layer_0
  10
151.65425
  20
291.22729
  0
VERTEX
  5
3bd
  8
Layer_0
  10
151.73221
  20
291.25714
  0
VERTEX
  5
3be
  8
Layer_0
  10
151.7764
  20
291.26758
  0
VERTEX
  5
3bf
  8
Layer_0
  10
151.87312
  20
291.22495
  0
VERTEX
  5
3c0
  8
Layer_0
  10
151.99667
  20
291.10712
  0
VERTEX
  5
3c1
  8
Layer_0
  10
152.1312
  20
290.93213
  0
VERTEX
  5
3c2
  8
Layer_0
  10
152.26079
  20
290.71808
  0
SEQEND
  0
POLYLINE
  5
3c4
  8
Layer_0
  62
0
  70
1
  66
1
  10
0
  20
0
  30
0
  0
VERTEX
  5
3c4
  8
Layer_0
  10
244.64944
  20
290.31662
  0
VERTEX
  5
3c5
  8
Layer_0
  10
245.05243
  20
290.11041
  0
VERTEX
  5
3c6
  8
Layer_0
  10
245.51498
  20
289.86462
  0
VERTEX
  5
3c7
  8
Layer_0
  10
246.02628
  20
289.58575
  0
VERTEX
  5
3c8
  8
Layer_0
  10
246.5755
  20
289.28015
  0
VERTEX
  5
3c9
  8
Layer_0
  10
247.74445
  20
288.61438
  0
VERTEX
  5
3ca
  8
Layer_0
  10
248.93521
  20
287.91846
  0
VERTEX
  5
3cb
  8
Layer_0
  10
249.51172
  20
287.57526
  0
VERTEX
  5
3cc
  8
Layer_0
  10
250.06123
  20
287.24374
  0
VERTEX
  5
3cd
  8
Layer_0
  10
250.57291
  20
286.9303
  0
VERTEX
  5
3ce
  8
Layer_0
  10
251.03593
  20
286.64136
  0
VERTEX
  5
3cf
  8
Layer_0
  10
251.43948
  20
286.3833
  0
VERTEX
  5
3d0
  8
Layer_0
  10
251.77275
  20
286.16254
  0
VERTEX
  5
3d1
  8
Layer_0
  10
251.90964
  20
286.06815
  0
VERTEX
  5
3d2
  8
Layer_0
  10
252.0249
  20
285.98547
  0
VERTEX
  5
3d3
  8
Layer_0
  10
252.11716
  20
285.91534
  0
VERTEX
  5
3d4
  8
Layer_0
  10
252.1851
  20
285.85852
  0
VERTEX
  5
3d5
  8
Layer_0
  10
252.27264
  20
285.77145
  0
VERTEX
  5
3d6
  8
Layer_0
  10
252.33461
  20
285.68866
  0
VERTEX
  5
3d7
  8
Layer_0
  10
252.37085
  20
285.60641
  0
VERTEX
  5
3d8
  8
Layer_0
  10
252.38127
  20
285.52094
  0
VERTEX
  5
3d9
  8
Layer_0
  10
252.36575
  20
285.42847
  0
VERTEX
  5
3da
  8
Layer_0
  10
252.32422
  20
285.3252
  0
VERTEX
  5
3db
  8
Layer_0
  10
252.25653
  20
285.20743
  0
VERTEX
  5
3dc
  8
Layer_0
  10
252.1626
  20
285.07138
  0
VERTEX
  5
3dd
  8
Layer_0
  10
252.03835
  20
284.92645
  0
VERTEX
  5
3de
  8
Layer_0
  10
251.89568
  20
284.84357
  0
VERTEX
  5
3df
  8
Layer_0
  10
251.80748
  20
284.82916
  0
VERTEX
  5
3e0
  8
Layer_0
  10
251.70271
  20
284.83478
  0
VERTEX
  5
3e1
  8
Layer_0
  10
251.57741
  20
284.862
  0
VERTEX
  5
3e2
  8
Layer_0
  10
251.4276
  20
284.91235
  0
VERTEX
  5
3e3
  8
Layer_0
  10
251.24928
  20
284.9873
  0
VERTEX
  5
3e4
  8
Layer_0
  10
251.03845
  20
285.08838
  0
VERTEX
  5
3e5
  8
Layer_0
  10
250.79117
  20
285.21713
  0
VERTEX
  5
3e6
  8
Layer_0
  10
250.50345
  20
285.37506
  0
VERTEX
  5
3e7
  8
Layer_0
  10
250.1713
  20
285.56372
  0
VERTEX
  5
3e8
  8
Layer_0
  10
249.79071
  20
285.78458
  0
VERTEX
  5
3e9
  8
Layer_0
  10
248.86836
  20
286.32904
  0
VERTEX
  5
3ea
  8
Layer_0
  10
247.57486
  20
287.08267
  0
VERTEX
  5
3eb
  8
Layer_0
  10
246.22519
  20
287.84525
  0
VERTEX
  5
3ec
  8
Layer_0
  10
245.57925
  20
288.20209
  0
VERTEX
  5
3ed
  8
Layer_0
  10
244.97919
  20
288.52774
  0
VERTEX
  5
3ee
  8
Layer_0
  10
244.70261
  20
288.67542
  0
VERTEX
  5
3ef
  8
Layer_0
  10
244.20886
  20
288.93356
  0
VERTEX
  5
3f0
  8
Layer_0
  10
243.23914
  20
289.42322
  0
VERTEX
  5
3f1
  8
Layer_0
  10
242.60562
  20
289.74786
  0
VERTEX
  5
3f2
  8
Layer_0
  10
242.16245
  20
289.98083
  0
VERTEX
  5
3f3
  8
Layer_0
  10
242.03296
  20
290.05219
  0
VERTEX
  5
3f4
  8
Layer_0
  10
241.97591
  20
290.08771
  0
VERTEX
  5
3f5
  8
Layer_0
  10
241.96338
  20
290.16794
  0
VERTEX
  5
3f6
  8
Layer_0
  10
242.00281
  20
290.31567
  0
VERTEX
  5
3f7
  8
Layer_0
  10
242.0813
  20
290.50681
  0
VERTEX
  5
3f8
  8
Layer_0
  10
242.18597
  20
290.71722
  0
VERTEX
  5
3f9
  8
Layer_0
  10
242.30392
  20
290.92285
  0
VERTEX
  5
3fa
  8
Layer_0
  10
242.42227
  20
291.09955
  0
VERTEX
  5
3fb
  8
Layer_0
  10
242.52808
  20
291.22324
  0
VERTEX
  5
3fc
  8
Layer_0
  10
242.60847
  20
291.26984
  0
VERTEX
  5
3fd
  8
Layer_0
  10
242.67351
  20
291.25037
  0
VERTEX
  5
3fe
  8
Layer_0
  10
242.8096
  20
291.19464
  0
VERTEX
  5
3ff
  8
Layer_0
  10
243.00839
  20
291.10645
  0
VERTEX
  5
400
  8
Layer_0
  10
243.26147
  20
290.98981
  0
VERTEX
  5
401
  8
Layer_0
  10
243.56049
  20
290.8486
  0
VERTEX
  5
402
  8
Layer_0
  10
243.89706
  20
290.68671
  0
VERTEX
  5
403
  8
Layer_0
  10
244.26285
  20
290.50812
  0
VERTEX
  5
404
  8
Layer_0
  10
244.64944
  20
290.31662
  0
SEQEND
  0
POLYLINE
  5
406
  8
Layer_0
  62
0
  70
1
  66
1
  10
0
  20
0
  30
0
  0
VERTEX
  5
406
  8
Layer_0
  10
195.1058
  20
306.61377
  0
VERTEX
  5
407
  8
Layer_0
  10
194.94159
  20
306.42502
  0
VERTEX
  5
408
  8
Layer_0
  10
194.81525
  20
306.19324
  0
VERTEX
  5
409
  8
Layer_0
  10
194.76474
  20
306.04474
  0
VERTEX
  5
40a
  8
Layer_0
  10
194.72183
  20
305.86566
  0
VERTEX
  5
40b
  8
Layer_0
  10
194.68594
  20
305.64944
  0
VERTEX
  5
40c
  8
Layer_0
  10
194.65646
  20
305.38947
  0
VERTEX
  5
40d
  8
Layer_0
  10
194.63275
  20
305.07916
  0
VERTEX
  5
40e
  8
Layer_0
  10
194.61418
  20
304.71191
  0
VERTEX
  5
40f
  8
Layer_0
  10
194.60017
  20
304.28113
  0
VERTEX
  5
410
  8
Layer_0
  10
194.59009
  20
303.78018
  0
VERTEX
  5
411
  8
Layer_0
  10
194.58331
  20
303.20251
  0
VERTEX
  5
412
  8
Layer_0
  10
194.57922
  20
302.54156
  0
VERTEX
  5
413
  8
Layer_0
  10
194.57671
  20
300.94318
  0
VERTEX
  5
414
  8
Layer_0
  10
194.58197
  20
299.89648
  0
VERTEX
  5
415
  8
Layer_0
  10
194.59706
  20
298.89325
  0
VERTEX
  5
416
  8
Layer_0
  10
194.62093
  20
297.95734
  0
VERTEX
  5
417
  8
Layer_0
  10
194.6525
  20
297.11264
  0
VERTEX
  5
418
  8
Layer_0
  10
194.67084
  20
296.73193
  0
VERTEX
  5
419
  8
Layer_0
  10
194.69072
  20
296.383
  0
VERTEX
  5
41a
  8
Layer_0
  10
194.71199
  20
296.06876
  0
VERTEX
  5
41b
  8
Layer_0
  10
194.73453
  20
295.79224
  0
VERTEX
  5
41c
  8
Layer_0
  10
194.75819
  20
295.55646
  0
VERTEX
  5
41d
  8
Layer_0
  10
194.78287
  20
295.36432
  0
VERTEX
  5
41e
  8
Layer_0
  10
194.80841
  20
295.21884
  0
VERTEX
  5
41f
  8
Layer_0
  10
194.8347
  20
295.12305
  0
VERTEX
  5
420
  8
Layer_0
  10
194.91478
  20
294.93613
  0
VERTEX
  5
421
  8
Layer_0
  10
195.00229
  20
294.78522
  0
VERTEX
  5
422
  8
Layer_0
  10
195.10315
  20
294.66687
  0
VERTEX
  5
423
  8
Layer_0
  10
195.22331
  20
294.5777
  0
VERTEX
  5
424
  8
Layer_0
  10
195.36871
  20
294.51428
  0
VERTEX
  5
425
  8
Layer_0
  10
195.54532
  20
294.47321
  0
VERTEX
  5
426
  8
Layer_0
  10
195.75906
  20
294.45108
  0
VERTEX
  5
427
  8
Layer_0
  10
196.01587
  20
294.44446
  0
VERTEX
  5
428
  8
Layer_0
  10
196.2438
  20
294.45184
  0
VERTEX
  5
429
  8
Layer_0
  10
196.44696
  20
294.47437
  0
VERTEX
  5
42a
  8
Layer_0
  10
196.62653
  20
294.51251
  0
VERTEX
  5
42b
  8
Layer_0
  10
196.78371
  20
294.56689
  0
VERTEX
  5
42c
  8
Layer_0
  10
196.91974
  20
294.63788
  0
VERTEX
  5
42d
  8
Layer_0
  10
197.0358
  20
294.7261
  0
VERTEX
  5
42e
  8
Layer_0
  10
197.13312
  20
294.83203
  0
VERTEX
  5
42f
  8
Layer_0
  10
197.21289
  20
294.95618
  0
VERTEX
  5
430
  8
Layer_0
  10
197.24278
  20
295.03699
  0
VERTEX
  5
431
  8
Layer_0
  10
197.27136
  20
295.16418
  0
VERTEX
  5
432
  8
Layer_0
  10
197.29858
  20
295.33594
  0
VERTEX
  5
433
  8
Layer_0
  10
197.32431
  20
295.55035
  0
VERTEX
  5
434
  8
Layer_0
  10
197.34848
  20
295.8056
  0
VERTEX
  5
435
  8
Layer_0
  10
197.37103
  20
296.09982
  0
VERTEX
  5
436
  8
Layer_0
  10
197.39185
  20
296.43112
  0
VERTEX
  5
437
  8
Layer_0
  10
197.41083
  20
296.79773
  0
VERTEX
  5
438
  8
Layer_0
  10
197.42792
  20
297.19769
  0
VERTEX
  5
439
  8
Layer_0
  10
197.44299
  20
297.62921
  0
VERTEX
  5
43a
  8
Layer_0
  10
197.45599
  20
298.09039
  0
VERTEX
  5
43b
  8
Layer_0
  10
197.46683
  20
298.57935
  0
VERTEX
  5
43c
  8
Layer_0
  10
197.48166
  20
299.63336
  0
VERTEX
  5
43d
  8
Layer_0
  10
197.48676
  20
300.77628
  0
VERTEX
  5
43e
  8
Layer_0
  10
197.48624
  20
301.65308
  0
VERTEX
  5
43f
  8
Layer_0
  10
197.48026
  20
303.11292
  0
VERTEX
  5
440
  8
Layer_0
  10
197.47354
  20
303.70959
  0
VERTEX
  5
441
  8
Layer_0
  10
197.46353
  20
304.22662
  0
VERTEX
  5
442
  8
Layer_0
  10
197.44958
  20
304.67084
  0
VERTEX
  5
443
  8
Layer_0
  10
197.43109
  20
305.04907
  0
VERTEX
  5
444
  8
Layer_0
  10
197.40744
  20
305.36816
  0
VERTEX
  5
445
  8
Layer_0
  10
197.37799
  20
305.63501
  0
VERTEX
  5
446
  8
Layer_0
  10
197.34213
  20
305.85635
  0
VERTEX
  5
447
  8
Layer_0
  10
197.29922
  20
306.03912
  0
VERTEX
  5
448
  8
Layer_0
  10
197.2487
  20
306.19016
  0
VERTEX
  5
449
  8
Layer_0
  10
197.12221
  20
306.42438
  0
VERTEX
  5
44a
  8
Layer_0
  10
196.95766
  20
306.61377
  0
VERTEX
  5
44b
  8
Layer_0
  10
196.7209
  20
306.81921
  0
VERTEX
  5
44c
  8
Layer_0
  10
196.46741
  20
306.98746
  0
VERTEX
  5
44d
  8
Layer_0
  10
196.22755
  20
307.10114
  0
VERTEX
  5
44e
  8
Layer_0
  10
196.03172
  20
307.14288
  0
VERTEX
  5
44f
  8
Layer_0
  10
195.83591
  20
307.10114
  0
VERTEX
  5
450
  8
Layer_0
  10
195.59604
  20
306.98746
  0
VERTEX
  5
451
  8
Layer_0
  10
195.34256
  20
306.81921
  0
VERTEX
  5
452
  8
Layer_0
  10
195.1058
  20
306.61377
  0
SEQEND
  0
POLYLINE
  5
454
  8
Layer_0
  62
0
  70
1
  66
1
  10
0
  20
0
  30
0
  0
VERTEX
  5
454
  8
Layer_0
  10
181.66302
  20
305.85617
  0
VERTEX
  5
455
  8
Layer_0
  10
181.56894
  20
305.77179
  0
VERTEX
  5
456
  8
Layer_0
  10
181.50186
  20
305.64508
  0
VERTEX
  5
457
  8
Layer_0
  10
181.46185
  20
305.46088
  0
VERTEX
  5
458
  8
Layer_0
  10
181.44891
  20
305.2041
  0
VERTEX
  5
459
  8
Layer_0
  10
181.45261
  20
305.04376
  0
VERTEX
  5
45a
  8
Layer_0
  10
181.46307
  20
304.85959
  0
VERTEX
  5
45b
  8
Layer_0
  10
181.48035
  20
304.64972
  0
VERTEX
  5
45c
  8
Layer_0
  10
181.50439
  20
304.41223
  0
VERTEX
  5
45d
  8
Layer_0
  10
181.53525
  20
304.14526
  0
VERTEX
  5
45e
  8
Layer_0
  10
181.57289
  20
303.84692
  0
VERTEX
  5
45f
  8
Layer_0
  10
181.61732
  20
303.51532
  0
VERTEX
  5
460
  8
Layer_0
  10
182.0217
  20
300.66138
  0
VERTEX
  5
461
  8
Layer_0
  10
182.80978
  20
300.74829
  0
VERTEX
  5
462
  8
Layer_0
  10
183.15662
  20
300.82181
  0
VERTEX
  5
463
  8
Layer_0
  10
183.51837
  20
300.9577
  0
VERTEX
  5
464
  8
Layer_0
  10
183.8522
  20
301.13666
  0
VERTEX
  5
465
  8
Layer_0
  10
184.1153
  20
301.33923
  0
VERTEX
  5
466
  8
Layer_0
  10
184.27255
  20
301.50305
  0
VERTEX
  5
467
  8
Layer_0
  10
184.38884
  20
301.66028
  0
VERTEX
  5
468
  8
Layer_0
  10
184.46608
  20
301.83081
  0
VERTEX
  5
469
  8
Layer_0
  10
184.50626
  20
302.03461
  0
VERTEX
  5
46a
  8
Layer_0
  10
184.51129
  20
302.2915
  0
VERTEX
  5
46b
  8
Layer_0
  10
184.48315
  20
302.62146
  0
VERTEX
  5
46c
  8
Layer_0
  10
184.45726
  20
302.82007
  0
VERTEX
  5
46d
  8
Layer_0
  10
184.42381
  20
303.04443
  0
VERTEX
  5
46e
  8
Layer_0
  10
184.33521
  20
303.58026
  0
VERTEX
  5
46f
  8
Layer_0
  10
184.19455
  20
304.28503
  0
VERTEX
  5
470
  8
Layer_0
  10
184.03152
  20
304.91977
  0
VERTEX
  5
471
  8
Layer_0
  10
183.94795
  20
305.18915
  0
VERTEX
  5
472
  8
Layer_0
  10
183.86635
  20
305.41495
  0
VERTEX
  5
473
  8
Layer_0
  10
183.78926
  20
305.58847
  0
VERTEX
  5
474
  8
Layer_0
  10
183.71922
  20
305.70099
  0
VERTEX
  5
475
  8
Layer_0
  10
183.55379
  20
305.84222
  0
VERTEX
  5
476
  8
Layer_0
  10
183.32913
  20
305.95117
  0
VERTEX
  5
477
  8
Layer_0
  10
183.06177
  20
306.02655
  0
VERTEX
  5
478
  8
Layer_0
  10
182.76822
  20
306.06708
  0
VERTEX
  5
479
  8
Layer_0
  10
182.46504
  20
306.07153
  0
VERTEX
  5
47a
  8
Layer_0
  10
182.16876
  20
306.03873
  0
VERTEX
  5
47b
  8
Layer_0
  10
181.8959
  20
305.96735
  0
VERTEX
  5
47c
  8
Layer_0
  10
181.66302
  20
305.85617
  0
SEQEND
  0
POLYLINE
  5
47e
  8
Layer_0
  62
0
  70
1
  66
1
  10
0
  20
0
  30
0
  0
VERTEX
  5
47e
  8
Layer_0
  10
168.80194
  20
303.02344
  0
VERTEX
  5
47f
  8
Layer_0
  10
168.64066
  20
302.827
  0
VERTEX
  5
480
  8
Layer_0
  10
168.50879
  20
302.5994
  0
VERTEX
  5
481
  8
Layer_0
  10
168.41995
  20
302.36887
  0
VERTEX
  5
482
  8
Layer_0
  10
168.38773
  20
302.16367
  0
VERTEX
  5
483
  8
Layer_0
  10
168.39542
  20
302.06168
  0
VERTEX
  5
484
  8
Layer_0
  10
168.41736
  20
301.9118
  0
VERTEX
  5
485
  8
Layer_0
  10
168.45267
  20
301.71729
  0
VERTEX
  5
486
  8
Layer_0
  10
168.50046
  20
301.48138
  0
VERTEX
  5
487
  8
Layer_0
  10
168.55984
  20
301.2074
  0
VERTEX
  5
488
  8
Layer_0
  10
168.62996
  20
300.89862
  0
VERTEX
  5
489
  8
Layer_0
  10
168.70988
  20
300.55832
  0
VERTEX
  5
48a
  8
Layer_0
  10
168.79874
  20
300.18979
  0
VERTEX
  5
48b
  8
Layer_0
  10
168.99969
  20
299.38107
  0
VERTEX
  5
48c
  8
Layer_0
  10
169.22575
  20
298.49869
  0
VERTEX
  5
48d
  8
Layer_0
  10
169.46979
  20
297.56888
  0
VERTEX
  5
48e
  8
Layer_0
  10
169.72469
  20
296.61786
  0
VERTEX
  5
48f
  8
Layer_0
  10
169.98337
  20
295.67188
  0
VERTEX
  5
490
  8
Layer_0
  10
170.23874
  20
294.75711
  0
VERTEX
  5
491
  8
Layer_0
  10
170.4837
  20
293.89981
  0
VERTEX
  5
492
  8
Layer_0
  10
170.71115
  20
293.12619
  0
VERTEX
  5
493
  8
Layer_0
  10
170.81609
  20
292.77899
  0
VERTEX
  5
494
  8
Layer_0
  10
170.91397
  20
292.46252
  0
VERTEX
  5
495
  8
Layer_0
  10
171.00391
  20
292.18008
  0
VERTEX
  5
496
  8
Layer_0
  10
171.08505
  20
291.93494
  0
VERTEX
  5
497
  8
Layer_0
  10
171.15649
  20
291.73041
  0
VERTEX
  5
498
  8
Layer_0
  10
171.21735
  20
291.56976
  0
VERTEX
  5
499
  8
Layer_0
  10
171.26671
  20
291.4563
  0
VERTEX
  5
49a
  8
Layer_0
  10
171.30371
  20
291.39319
  0
VERTEX
  5
49b
  8
Layer_0
  10
171.4984
  20
291.21405
  0
VERTEX
  5
49c
  8
Layer_0
  10
171.7291
  20
291.09369
  0
VERTEX
  5
49d
  8
Layer_0
  10
171.98569
  20
291.03125
  0
VERTEX
  5
49e
  8
Layer_0
  10
172.25801
  20
291.02588
  0
VERTEX
  5
49f
  8
Layer_0
  10
172.53596
  20
291.07678
  0
VERTEX
  5
4a0
  8
Layer_0
  10
172.80942
  20
291.18311
  0
VERTEX
  5
4a1
  8
Layer_0
  10
173.06825
  20
291.34399
  0
VERTEX
  5
4a2
  8
Layer_0
  10
173.30232
  20
291.55862
  0
VERTEX
  5
4a3
  8
Layer_0
  10
173.46228
  20
291.75183
  0
VERTEX
  5
4a4
  8
Layer_0
  10
173.56616
  20
291.9646
  0
VERTEX
  5
4a5
  8
Layer_0
  10
173.59435
  20
292.09802
  0
VERTEX
  5
4a6
  8
Layer_0
  10
173.60524
  20
292.25989
  0
VERTEX
  5
4a7
  8
Layer_0
  10
173.59775
  20
292.45819
  0
VERTEX
  5
4a8
  8
Layer_0
  10
173.57079
  20
292.70074
  0
VERTEX
  5
4a9
  8
Layer_0
  10
173.52325
  20
292.99548
  0
VERTEX
  5
4aa
  8
Layer_0
  10
173.45404
  20
293.35022
  0
VERTEX
  5
4ab
  8
Layer_0
  10
173.36209
  20
293.77283
  0
VERTEX
  5
4ac
  8
Layer_0
  10
173.24626
  20
294.27124
  0
VERTEX
  5
4ad
  8
Layer_0
  10
173.1055
  20
294.85333
  0
VERTEX
  5
4ae
  8
Layer_0
  10
172.93871
  20
295.52692
  0
VERTEX
  5
4af
  8
Layer_0
  10
172.52266
  20
297.1803
  0
VERTEX
  5
4b0
  8
Layer_0
  10
172.25777
  20
298.21057
  0
VERTEX
  5
4b1
  8
Layer_0
  10
171.99582
  20
299.19525
  0
VERTEX
  5
4b2
  8
Layer_0
  10
171.74362
  20
300.11102
  0
VERTEX
  5
4b3
  8
Layer_0
  10
171.50793
  20
300.93469
  0
VERTEX
  5
4b4
  8
Layer_0
  10
171.39842
  20
301.30475
  0
VERTEX
  5
4b5
  8
Layer_0
  10
171.29558
  20
301.64307
  0
VERTEX
  5
4b6
  8
Layer_0
  10
171.20026
  20
301.94675
  0
VERTEX
  5
4b7
  8
Layer_0
  10
171.11331
  20
302.21289
  0
VERTEX
  5
4b8
  8
Layer_0
  10
171.03561
  20
302.4386
  0
VERTEX
  5
4b9
  8
Layer_0
  10
170.96799
  20
302.62091
  0
VERTEX
  5
4ba
  8
Layer_0
  10
170.91127
  20
302.75702
  0
VERTEX
  5
4bb
  8
Layer_0
  10
170.86633
  20
302.84393
  0
VERTEX
  5
4bc
  8
Layer_0
  10
170.67615
  20
303.07654
  0
VERTEX
  5
4bd
  8
Layer_0
  10
170.44333
  20
303.2511
  0
VERTEX
  5
4be
  8
Layer_0
  10
170.1795
  20
303.36664
  0
VERTEX
  5
4bf
  8
Layer_0
  10
169.89632
  20
303.42215
  0
VERTEX
  5
4c0
  8
Layer_0
  10
169.60535
  20
303.4166
  0
VERTEX
  5
4c1
  8
Layer_0
  10
169.31821
  20
303.34894
  0
VERTEX
  5
4c2
  8
Layer_0
  10
169.04654
  20
303.21826
  0
VERTEX
  5
4c3
  8
Layer_0
  10
168.80194
  20
303.02344
  0
SEQEND
  0
POLYLINE
  5
4c5
  8
Layer_0
  62
0
  70
1
  66
1
  10
0
  20
0
  30
0
  0
VERTEX
  5
4c5
  8
Layer_0
  10
233.36092
  20
299.66931
  0
VERTEX
  5
4c6
  8
Layer_0
  10
233.31226
  20
299.58429
  0
VERTEX
  5
4c7
  8
Layer_0
  10
233.24571
  20
299.45386
  0
VERTEX
  5
4c8
  8
Layer_0
  10
233.16245
  20
299.28073
  0
VERTEX
  5
4c9
  8
Layer_0
  10
233.06363
  20
299.06757
  0
VERTEX
  5
4ca
  8
Layer_0
  10
232.95044
  20
298.81708
  0
VERTEX
  5
4cb
  8
Layer_0
  10
232.82401
  20
298.53204
  0
VERTEX
  5
4cc
  8
Layer_0
  10
232.53613
  20
297.86908
  0
VERTEX
  5
4cd
  8
Layer_0
  10
232.20938
  20
297.10037
  0
VERTEX
  5
4ce
  8
Layer_0
  10
231.85303
  20
296.24756
  0
VERTEX
  5
4cf
  8
Layer_0
  10
231.47641
  20
295.3324
  0
VERTEX
  5
4d0
  8
Layer_0
  10
231.08884
  20
294.37665
  0
VERTEX
  5
4d1
  8
Layer_0
  10
230.74011
  20
293.50461
  0
VERTEX
  5
4d2
  8
Layer_0
  10
230.43419
  20
292.7254
  0
VERTEX
  5
4d3
  8
Layer_0
  10
230.17021
  20
292.03357
  0
VERTEX
  5
4d4
  8
Layer_0
  10
229.9473
  20
291.42355
  0
VERTEX
  5
4d5
  8
Layer_0
  10
229.76456
  20
290.88977
  0
VERTEX
  5
4d6
  8
Layer_0
  10
229.62115
  20
290.42676
  0
VERTEX
  5
4d7
  8
Layer_0
  10
229.51617
  20
290.02896
  0
VERTEX
  5
4d8
  8
Layer_0
  10
229.44876
  20
289.69083
  0
VERTEX
  5
4d9
  8
Layer_0
  10
229.41806
  20
289.4068
  0
VERTEX
  5
4da
  8
Layer_0
  10
229.42317
  20
289.17133
  0
VERTEX
  5
4db
  8
Layer_0
  10
229.46323
  20
288.97891
  0
VERTEX
  5
4dc
  8
Layer_0
  10
229.53738
  20
288.82404
  0
VERTEX
  5
4dd
  8
Layer_0
  10
229.64473
  20
288.70111
  0
VERTEX
  5
4de
  8
Layer_0
  10
229.78439
  20
288.60461
  0
VERTEX
  5
4df
  8
Layer_0
  10
229.95554
  20
288.52905
  0
VERTEX
  5
4e0
  8
Layer_0
  10
230.15726
  20
288.46881
  0
VERTEX
  5
4e1
  8
Layer_0
  10
230.397
  20
288.41418
  0
VERTEX
  5
4e2
  8
Layer_0
  10
230.61496
  20
288.38065
  0
VERTEX
  5
4e3
  8
Layer_0
  10
230.81529
  20
288.37378
  0
VERTEX
  5
4e4
  8
Layer_0
  10
231.00215
  20
288.39923
  0
VERTEX
  5
4e5
  8
Layer_0
  10
231.17972
  20
288.46259
  0
VERTEX
  5
4e6
  8
Layer_0
  10
231.35211
  20
288.56946
  0
VERTEX
  5
4e7
  8
Layer_0
  10
231.5235
  20
288.72552
  0
VERTEX
  5
4e8
  8
Layer_0
  10
231.69806
  20
288.9364
  0
VERTEX
  5
4e9
  8
Layer_0
  10
231.87993
  20
289.20764
  0
VERTEX
  5
4ea
  8
Layer_0
  10
232.07327
  20
289.54492
  0
VERTEX
  5
4eb
  8
Layer_0
  10
232.28223
  20
289.95386
  0
VERTEX
  5
4ec
  8
Layer_0
  10
232.51099
  20
290.44009
  0
VERTEX
  5
4ed
  8
Layer_0
  10
232.76367
  20
291.00922
  0
VERTEX
  5
4ee
  8
Layer_0
  10
233.04446
  20
291.66681
  0
VERTEX
  5
4ef
  8
Layer_0
  10
233.19669
  20
292.03058
  0
VERTEX
  5
4f0
  8
Layer_0
  10
233.70694
  20
293.27014
  0
VERTEX
  5
4f1
  8
Layer_0
  10
234.08995
  20
294.21539
  0
VERTEX
  5
4f2
  8
Layer_0
  10
234.45313
  20
295.12646
  0
VERTEX
  5
4f3
  8
Layer_0
  10
234.78809
  20
295.98141
  0
VERTEX
  5
4f4
  8
Layer_0
  10
235.08649
  20
296.75812
  0
VERTEX
  5
4f5
  8
Layer_0
  10
235.21936
  20
297.11029
  0
VERTEX
  5
4f6
  8
Layer_0
  10
235.44719
  20
297.72839
  0
VERTEX
  5
4f7
  8
Layer_0
  10
235.54007
  20
297.98883
  0
VERTEX
  5
4f8
  8
Layer_0
  10
235.61752
  20
298.2132
  0
VERTEX
  5
4f9
  8
Layer_0
  10
235.67853
  20
298.39871
  0
VERTEX
  5
4fa
  8
Layer_0
  10
235.72203
  20
298.54266
  0
VERTEX
  5
4fb
  8
Layer_0
  10
235.74695
  20
298.64227
  0
VERTEX
  5
4fc
  8
Layer_0
  10
235.77643
  20
298.9054
  0
VERTEX
  5
4fd
  8
Layer_0
  10
235.7597
  20
299.15161
  0
VERTEX
  5
4fe
  8
Layer_0
  10
235.70158
  20
299.37891
  0
VERTEX
  5
4ff
  8
Layer_0
  10
235.60686
  20
299.58517
  0
VERTEX
  5
500
  8
Layer_0
  10
235.48032
  20
299.76834
  0
VERTEX
  5
501
  8
Layer_0
  10
235.32677
  20
299.92639
  0
VERTEX
  5
502
  8
Layer_0
  10
235.151
  20
300.05719
  0
VERTEX
  5
503
  8
Layer_0
  10
234.95782
  20
300.15875
  0
VERTEX
  5
504
  8
Layer_0
  10
234.75201
  20
300.22894
  0
VERTEX
  5
505
  8
Layer_0
  10
234.53839
  20
300.26575
  0
VERTEX
  5
506
  8
Layer_0
  10
234.32173
  20
300.26706
  0
VERTEX
  5
507
  8
Layer_0
  10
234.10684
  20
300.23083
  0
VERTEX
  5
508
  8
Layer_0
  10
233.89853
  20
300.15503
  0
VERTEX
  5
509
  8
Layer_0
  10
233.70157
  20
300.03754
  0
VERTEX
  5
50a
  8
Layer_0
  10
233.52075
  20
299.87634
  0
VERTEX
  5
50b
  8
Layer_0
  10
233.36092
  20
299.66931
  0
SEQEND
  0
ENDSEC
  0
EOF
