  0
SECTION
  2
HEADER
  9
$ACADVER
  1
AC1009
  0
ENDSEC
  0
SECTION
  2
ENTITIES
  0
POLYLINE
  5
90
  8
Layer_0
  62
0
  70
1
  66
1
  10
0
  20
0
  30
0
  0
VERTEX
  5
90
  8
Layer_0
  10
217.72647
  20
274.75208
  0
VERTEX
  5
91
  8
Layer_0
  10
218.34988
  20
274.4418
  0
VERTEX
  5
92
  8
Layer_0
  10
218.9223
  20
274.09033
  0
VERTEX
  5
93
  8
Layer_0
  10
219.4397
  20
273.70184
  0
VERTEX
  5
94
  8
Layer_0
  10
219.89803
  20
273.2804
  0
VERTEX
  5
95
  8
Layer_0
  10
220.29321
  20
272.83023
  0
VERTEX
  5
96
  8
Layer_0
  10
220.62117
  20
272.35544
  0
VERTEX
  5
97
  8
Layer_0
  10
220.87788
  20
271.86017
  0
VERTEX
  5
98
  8
Layer_0
  10
221.05928
  20
271.34854
  0
VERTEX
  5
99
  8
Layer_0
  10
221.14314
  20
270.98993
  0
VERTEX
  5
9a
  8
Layer_0
  10
221.18958
  20
270.62128
  0
VERTEX
  5
9b
  8
Layer_0
  10
221.19719
  20
270.42026
  0
VERTEX
  5
9c
  8
Layer_0
  10
221.19357
  20
270.20117
  0
VERTEX
  5
9d
  8
Layer_0
  10
221.1781
  20
269.9588
  0
VERTEX
  5
9e
  8
Layer_0
  10
221.15018
  20
269.68793
  0
VERTEX
  5
9f
  8
Layer_0
  10
221.10915
  20
269.38342
  0
VERTEX
  5
a0
  8
Layer_0
  10
221.05438
  20
269.04004
  0
VERTEX
  5
a1
  8
Layer_0
  10
220.98528
  20
268.65262
  0
VERTEX
  5
a2
  8
Layer_0
  10
220.90121
  20
268.21597
  0
VERTEX
  5
a3
  8
Layer_0
  10
220.80156
  20
267.72485
  0
VERTEX
  5
a4
  8
Layer_0
  10
220.6857
  20
267.17413
  0
VERTEX
  5
a5
  8
Layer_0
  10
220.55299
  20
266.55859
  0
VERTEX
  5
a6
  8
Layer_0
  10
219.98581
  20
263.96088
  0
VERTEX
  5
a7
  8
Layer_0
  10
219.56105
  20
261.98126
  0
VERTEX
  5
a8
  8
Layer_0
  10
219.17828
  20
260.16785
  0
VERTEX
  5
a9
  8
Layer_0
  10
218.88727
  20
258.75421
  0
VERTEX
  5
aa
  8
Layer_0
  10
218.75018
  20
258.04504
  0
VERTEX
  5
ab
  8
Layer_0
  10
218.49702
  20
256.66855
  0
VERTEX
  5
ac
  8
Layer_0
  10
218.08531
  20
254.36095
  0
VERTEX
  5
ad
  8
Layer_0
  10
217.69522
  20
252.13669
  0
VERTEX
  5
ae
  8
Layer_0
  10
217.03867
  20
248.34586
  0
VERTEX
  5
af
  8
Layer_0
  10
216.33452
  20
244.23465
  0
VERTEX
  5
b0
  8
Layer_0
  10
215.62567
  20
240.05627
  0
VERTEX
  5
b1
  8
Layer_0
  10
214.95499
  20
236.0639
  0
VERTEX
  5
b2
  8
Layer_0
  10
214.36539
  20
232.51068
  0
VERTEX
  5
b3
  8
Layer_0
  10
214.0385
  20
230.51089
  0
VERTEX
  5
b4
  8
Layer_0
  10
213.83713
  20
229.25809
  0
VERTEX
  5
b5
  8
Layer_0
  10
213.63724
  20
227.97723
  0
VERTEX
  5
b6
  8
Layer_0
  10
213.54568
  20
227.34982
  0
VERTEX
  5
b7
  8
Layer_0
  10
213.51544
  20
227.10779
  0
VERTEX
  5
b8
  8
Layer_0
  10
213.51013
  20
227.04315
  0
VERTEX
  5
b9
  8
Layer_0
  10
213.51166
  20
227.01767
  0
VERTEX
  5
ba
  8
Layer_0
  10
213.53424
  20
227.01564
  0
VERTEX
  5
bb
  8
Layer_0
  10
213.58255
  20
227.0294
  0
VERTEX
  5
bc
  8
Layer_0
  10
213.65524
  20
227.05823
  0
VERTEX
  5
bd
  8
Layer_0
  10
213.75092
  20
227.10138
  0
VERTEX
  5
be
  8
Layer_0
  10
214.00574
  20
227.22766
  0
VERTEX
  5
bf
  8
Layer_0
  10
214.33606
  20
227.40233
  0
VERTEX
  5
c0
  8
Layer_0
  10
214.73085
  20
227.61942
  0
VERTEX
  5
c1
  8
Layer_0
  10
215.17914
  20
227.87296
  0
VERTEX
  5
c2
  8
Layer_0
  10
215.66991
  20
228.15706
  0
VERTEX
  5
c3
  8
Layer_0
  10
216.47533
  20
228.63297
  0
VERTEX
  5
c4
  8
Layer_0
  10
216.78824
  20
228.81435
  0
VERTEX
  5
c5
  8
Layer_0
  10
217.12767
  20
229.00818
  0
VERTEX
  5
c6
  8
Layer_0
  10
217.49042
  20
229.21271
  0
VERTEX
  5
c7
  8
Layer_0
  10
218.27295
  20
229.64693
  0
VERTEX
  5
c8
  8
Layer_0
  10
219.10995
  20
230.10303
  0
VERTEX
  5
c9
  8
Layer_0
  10
219.97566
  20
230.56705
  0
VERTEX
  5
ca
  8
Layer_0
  10
220.84424
  20
231.02509
  0
VERTEX
  5
cb
  8
Layer_0
  10
221.68988
  20
231.46315
  0
VERTEX
  5
cc
  8
Layer_0
  10
222.48676
  20
231.86729
  0
VERTEX
  5
cd
  8
Layer_0
  10
223.09695
  20
232.17198
  0
VERTEX
  5
ce
  8
Layer_0
  10
223.64186
  20
232.44154
  0
VERTEX
  5
cf
  8
Layer_0
  10
224.12769
  20
232.67813
  0
VERTEX
  5
d0
  8
Layer_0
  10
224.56068
  20
232.88387
  0
VERTEX
  5
d1
  8
Layer_0
  10
224.94711
  20
233.06091
  0
VERTEX
  5
d2
  8
Layer_0
  10
225.29321
  20
233.21138
  0
VERTEX
  5
d3
  8
Layer_0
  10
225.60524
  20
233.33743
  0
VERTEX
  5
d4
  8
Layer_0
  10
225.8894
  20
233.44119
  0
VERTEX
  5
d5
  8
Layer_0
  10
226.39923
  20
233.59044
  0
VERTEX
  5
d6
  8
Layer_0
  10
226.87262
  20
233.67625
  0
VERTEX
  5
d7
  8
Layer_0
  10
227.35959
  20
233.71576
  0
VERTEX
  5
d8
  8
Layer_0
  10
227.91003
  20
233.72609
  0
VERTEX
  5
d9
  8
Layer_0
  10
228.58218
  20
233.69821
  0
VERTEX
  5
da
  8
Layer_0
  10
229.23221
  20
233.61438
  0
VERTEX
  5
db
  8
Layer_0
  10
229.84805
  20
233.47911
  0
VERTEX
  5
dc
  8
Layer_0
  10
230.41763
  20
233.29697
  0
VERTEX
  5
dd
  8
Layer_0
  10
230.92889
  20
233.07249
  0
VERTEX
  5
de
  8
Layer_0
  10
231.36977
  20
232.81021
  0
VERTEX
  5
df
  8
Layer_0
  10
231.72816
  20
232.51468
  0
VERTEX
  5
e0
  8
Layer_0
  10
231.99203
  20
232.1904
  0
VERTEX
  5
e1
  8
Layer_0
  10
232.06284
  20
232.05133
  0
VERTEX
  5
e2
  8
Layer_0
  10
232.10489
  20
231.90479
  0
VERTEX
  5
e3
  8
Layer_0
  10
232.11838
  20
231.75104
  0
VERTEX
  5
e4
  8
Layer_0
  10
232.10355
  20
231.59039
  0
VERTEX
  5
e5
  8
Layer_0
  10
232.06061
  20
231.42317
  0
VERTEX
  5
e6
  8
Layer_0
  10
231.98976
  20
231.24963
  0
VERTEX
  5
e7
  8
Layer_0
  10
231.89127
  20
231.07007
  0
VERTEX
  5
e8
  8
Layer_0
  10
231.76532
  20
230.8848
  0
VERTEX
  5
e9
  8
Layer_0
  10
231.61215
  20
230.69412
  0
VERTEX
  5
ea
  8
Layer_0
  10
231.43198
  20
230.49835
  0
VERTEX
  5
eb
  8
Layer_0
  10
231.22504
  20
230.29774
  0
VERTEX
  5
ec
  8
Layer_0
  10
230.99152
  20
230.09261
  0
VERTEX
  5
ed
  8
Layer_0
  10
230.73164
  20
229.88326
  0
VERTEX
  5
ee
  8
Layer_0
  10
230.44565
  20
229.66998
  0
VERTEX
  5
ef
  8
Layer_0
  10
230.13376
  20
229.45306
  0
VERTEX
  5
f0
  8
Layer_0
  10
229.79619
  20
229.23282
  0
VERTEX
  5
f1
  8
Layer_0
  10
228.35464
  20
228.31274
  0
VERTEX
  5
f2
  8
Layer_0
  10
226.97153
  20
227.41406
  0
VERTEX
  5
f3
  8
Layer_0
  10
225.62054
  20
226.51874
  0
VERTEX
  5
f4
  8
Layer_0
  10
224.27534
  20
225.60884
  0
VERTEX
  5
f5
  8
Layer_0
  10
222.90968
  20
224.66638
  0
VERTEX
  5
f6
  8
Layer_0
  10
221.49719
  20
223.67337
  0
VERTEX
  5
f7
  8
Layer_0
  10
220.7652
  20
223.15231
  0
VERTEX
  5
f8
  8
Layer_0
  10
220.01163
  20
222.61188
  0
VERTEX
  5
f9
  8
Layer_0
  10
219.23318
  20
222.0498
  0
VERTEX
  5
fa
  8
Layer_0
  10
217.47008
  20
220.77103
  0
VERTEX
  5
fb
  8
Layer_0
  10
216.54204
  20
220.10645
  0
VERTEX
  5
fc
  8
Layer_0
  10
215.66539
  20
219.48592
  0
VERTEX
  5
fd
  8
Layer_0
  10
214.86298
  20
218.92532
  0
VERTEX
  5
fe
  8
Layer_0
  10
214.15765
  20
218.44052
  0
VERTEX
  5
ff
  8
Layer_0
  10
213.84857
  20
218.23151
  0
VERTEX
  5
100
  8
Layer_0
  10
213.57233
  20
218.04736
  0
VERTEX
  5
101
  8
Layer_0
  10
213.33179
  20
217.89011
  0
VERTEX
  5
102
  8
Layer_0
  10
213.12982
  20
217.76169
  0
VERTEX
  5
103
  8
Layer_0
  10
212.96927
  20
217.66409
  0
VERTEX
  5
104
  8
Layer_0
  10
212.85297
  20
217.59933
  0
VERTEX
  5
105
  8
Layer_0
  10
212.5386
  20
217.45854
  0
VERTEX
  5
106
  8
Layer_0
  10
212.21199
  20
217.35188
  0
VERTEX
  5
107
  8
Layer_0
  10
211.87274
  20
217.27945
  0
VERTEX
  5
108
  8
Layer_0
  10
211.52048
  20
217.24136
  0
VERTEX
  5
109
  8
Layer_0
  10
211.15485
  20
217.2377
  0
VERTEX
  5
10a
  8
Layer_0
  10
210.77545
  20
217.26859
  0
VERTEX
  5
10b
  8
Layer_0
  10
210.38194
  20
217.33414
  0
VERTEX
  5
10c
  8
Layer_0
  10
209.97392
  20
217.43445
  0
VERTEX
  5
10d
  8
Layer_0
  10
209.55104
  20
217.56964
  0
VERTEX
  5
10e
  8
Layer_0
  10
209.1129
  20
217.73978
  0
VERTEX
  5
10f
  8
Layer_0
  10
208.65915
  20
217.94501
  0
VERTEX
  5
110
  8
Layer_0
  10
208.18939
  20
218.18542
  0
VERTEX
  5
111
  8
Layer_0
  10
207.70326
  20
218.46114
  0
VERTEX
  5
112
  8
Layer_0
  10
207.20041
  20
218.77223
  0
VERTEX
  5
113
  8
Layer_0
  10
206.68042
  20
219.11884
  0
VERTEX
  5
114
  8
Layer_0
  10
206.14294
  20
219.50105
  0
VERTEX
  5
115
  8
Layer_0
  10
205.61185
  20
219.91893
  0
VERTEX
  5
116
  8
Layer_0
  10
205.16754
  20
220.33453
  0
VERTEX
  5
117
  8
Layer_0
  10
204.80534
  20
220.75626
  0
VERTEX
  5
118
  8
Layer_0
  10
204.52063
  20
221.19244
  0
VERTEX
  5
119
  8
Layer_0
  10
204.30876
  20
221.65152
  0
VERTEX
  5
11a
  8
Layer_0
  10
204.16507
  20
222.14185
  0
VERTEX
  5
11b
  8
Layer_0
  10
204.08493
  20
222.6718
  0
VERTEX
  5
11c
  8
Layer_0
  10
204.06369
  20
223.24974
  0
VERTEX
  5
11d
  8
Layer_0
  10
204.07024
  20
223.44949
  0
VERTEX
  5
11e
  8
Layer_0
  10
204.08606
  20
223.7177
  0
VERTEX
  5
11f
  8
Layer_0
  10
204.11087
  20
224.05191
  0
VERTEX
  5
120
  8
Layer_0
  10
204.14435
  20
224.4496
  0
VERTEX
  5
121
  8
Layer_0
  10
204.18622
  20
224.90833
  0
VERTEX
  5
122
  8
Layer_0
  10
204.23622
  20
225.42564
  0
VERTEX
  5
123
  8
Layer_0
  10
204.35931
  20
226.62605
  0
VERTEX
  5
124
  8
Layer_0
  10
204.51123
  20
228.03101
  0
VERTEX
  5
125
  8
Layer_0
  10
204.68964
  20
229.62067
  0
VERTEX
  5
126
  8
Layer_0
  10
204.89218
  20
231.37531
  0
VERTEX
  5
127
  8
Layer_0
  10
205.11647
  20
233.27509
  0
VERTEX
  5
128
  8
Layer_0
  10
205.36017
  20
235.3002
  0
VERTEX
  5
129
  8
Layer_0
  10
205.62091
  20
237.43088
  0
VERTEX
  5
12a
  8
Layer_0
  10
205.89633
  20
239.64731
  0
VERTEX
  5
12b
  8
Layer_0
  10
206.18408
  20
241.92969
  0
VERTEX
  5
12c
  8
Layer_0
  10
206.78709
  20
246.6131
  0
VERTEX
  5
12d
  8
Layer_0
  10
207.41106
  20
251.32277
  0
VERTEX
  5
12e
  8
Layer_0
  10
207.71118
  20
253.56685
  0
VERTEX
  5
12f
  8
Layer_0
  10
208.01169
  20
255.8378
  0
VERTEX
  5
130
  8
Layer_0
  10
208.30457
  20
258.07324
  0
VERTEX
  5
131
  8
Layer_0
  10
208.58174
  20
260.21085
  0
VERTEX
  5
132
  8
Layer_0
  10
208.83517
  20
262.18817
  0
VERTEX
  5
133
  8
Layer_0
  10
209.15323
  20
264.71704
  0
VERTEX
  5
134
  8
Layer_0
  10
209.3121
  20
266.02069
  0
VERTEX
  5
135
  8
Layer_0
  10
209.48093
  20
267.45642
  0
VERTEX
  5
136
  8
Layer_0
  10
209.5824
  20
268.28662
  0
VERTEX
  5
137
  8
Layer_0
  10
209.67856
  20
269.03122
  0
VERTEX
  5
138
  8
Layer_0
  10
209.77095
  20
269.69666
  0
VERTEX
  5
139
  8
Layer_0
  10
209.86115
  20
270.28925
  0
VERTEX
  5
13a
  8
Layer_0
  10
209.95068
  20
270.81525
  0
VERTEX
  5
13b
  8
Layer_0
  10
210.04111
  20
271.28101
  0
VERTEX
  5
13c
  8
Layer_0
  10
210.13396
  20
271.69293
  0
VERTEX
  5
13d
  8
Layer_0
  10
210.2308
  20
272.05728
  0
VERTEX
  5
13e
  8
Layer_0
  10
210.33315
  20
272.3804
  0
VERTEX
  5
13f
  8
Layer_0
  10
210.44257
  20
272.66858
  0
VERTEX
  5
140
  8
Layer_0
  10
210.56059
  20
272.92819
  0
VERTEX
  5
141
  8
Layer_0
  10
210.82869
  20
273.38696
  0
VERTEX
  5
142
  8
Layer_0
  10
211.1498
  20
273.80731
  0
VERTEX
  5
143
  8
Layer_0
  10
211.45622
  20
274.14526
  0
VERTEX
  5
144
  8
Layer_0
  10
211.77545
  20
274.44589
  0
VERTEX
  5
145
  8
Layer_0
  10
212.10774
  20
274.70917
  0
VERTEX
  5
146
  8
Layer_0
  10
212.45331
  20
274.93521
  0
VERTEX
  5
147
  8
Layer_0
  10
212.81241
  20
275.12396
  0
VERTEX
  5
148
  8
Layer_0
  10
213.1853
  20
275.27551
  0
VERTEX
  5
149
  8
Layer_0
  10
213.57222
  20
275.38989
  0
VERTEX
  5
14a
  8
Layer_0
  10
213.97343
  20
275.4671
  0
VERTEX
  5
14b
  8
Layer_0
  10
214.38916
  20
275.50726
  0
VERTEX
  5
14c
  8
Layer_0
  10
214.81966
  20
275.51028
  0
VERTEX
  5
14d
  8
Layer_0
  10
215.26517
  20
275.47632
  0
VERTEX
  5
14e
  8
Layer_0
  10
215.72592
  20
275.40533
  0
VERTEX
  5
14f
  8
Layer_0
  10
216.20218
  20
275.29736
  0
VERTEX
  5
150
  8
Layer_0
  10
216.6942
  20
275.15247
  0
VERTEX
  5
151
  8
Layer_0
  10
217.20221
  20
274.9707
  0
VERTEX
  5
152
  8
Layer_0
  10
217.72647
  20
274.75208
  0
SEQEND
  0
POLYLINE
  5
154
  8
Layer_0
  62
0
  70
1
  66
1
  10
0
  20
0
  30
0
  0
VERTEX
  5
154
  8
Layer_0
  10
185.77028
  20
259.52994
  0
VERTEX
  5
155
  8
Layer_0
  10
186.35907
  20
259.11121
  0
VERTEX
  5
156
  8
Layer_0
  10
186.88783
  20
258.73911
  0
VERTEX
  5
157
  8
Layer_0
  10
187.36429
  20
258.40967
  0
VERTEX
  5
158
  8
Layer_0
  10
187.7962
  20
258.11908
  0
VERTEX
  5
159
  8
Layer_0
  10
188.19131
  20
257.86346
  0
VERTEX
  5
15a
  8
Layer_0
  10
188.5574
  20
257.63889
  0
VERTEX
  5
15b
  8
Layer_0
  10
188.90219
  20
257.4415
  0
VERTEX
  5
15c
  8
Layer_0
  10
189.23343
  20
257.2674
  0
VERTEX
  5
15d
  8
Layer_0
  10
189.88631
  20
256.97363
  0
VERTEX
  5
15e
  8
Layer_0
  10
190.57805
  20
256.7265
  0
VERTEX
  5
15f
  8
Layer_0
  10
190.95786
  20
256.61072
  0
VERTEX
  5
160
  8
Layer_0
  10
191.37065
  20
256.495
  0
VERTEX
  5
161
  8
Layer_0
  10
191.82416
  20
256.37537
  0
VERTEX
  5
162
  8
Layer_0
  10
192.93004
  20
256.09491
  0
VERTEX
  5
163
  8
Layer_0
  10
193.47397
  20
255.95241
  0
VERTEX
  5
164
  8
Layer_0
  10
193.96272
  20
255.81827
  0
VERTEX
  5
165
  8
Layer_0
  10
194.40114
  20
255.69019
  0
VERTEX
  5
166
  8
Layer_0
  10
194.79404
  20
255.56586
  0
VERTEX
  5
167
  8
Layer_0
  10
195.14624
  20
255.44302
  0
VERTEX
  5
168
  8
Layer_0
  10
195.46259
  20
255.31937
  0
VERTEX
  5
169
  8
Layer_0
  10
195.74786
  20
255.19261
  0
VERTEX
  5
16a
  8
Layer_0
  10
196.24451
  20
254.92059
  0
VERTEX
  5
16b
  8
Layer_0
  10
196.67477
  20
254.6086
  0
VERTEX
  5
16c
  8
Layer_0
  10
197.07724
  20
254.23831
  0
VERTEX
  5
16d
  8
Layer_0
  10
197.49043
  20
253.7914
  0
VERTEX
  5
16e
  8
Layer_0
  10
197.86604
  20
253.33231
  0
VERTEX
  5
16f
  8
Layer_0
  10
198.21829
  20
252.83685
  0
VERTEX
  5
170
  8
Layer_0
  10
198.54744
  20
252.30399
  0
VERTEX
  5
171
  8
Layer_0
  10
198.85376
  20
251.7327
  0
VERTEX
  5
172
  8
Layer_0
  10
199.13754
  20
251.12195
  0
VERTEX
  5
173
  8
Layer_0
  10
199.39908
  20
250.4707
  0
VERTEX
  5
174
  8
Layer_0
  10
199.63863
  20
249.77798
  0
VERTEX
  5
175
  8
Layer_0
  10
199.85646
  20
249.04276
  0
VERTEX
  5
176
  8
Layer_0
  10
200.05287
  20
248.26399
  0
VERTEX
  5
177
  8
Layer_0
  10
200.22815
  20
247.44066
  0
VERTEX
  5
178
  8
Layer_0
  10
200.38257
  20
246.57176
  0
VERTEX
  5
179
  8
Layer_0
  10
200.51642
  20
245.65625
  0
VERTEX
  5
17a
  8
Layer_0
  10
200.62996
  20
244.69313
  0
VERTEX
  5
17b
  8
Layer_0
  10
200.72348
  20
243.68137
  0
VERTEX
  5
17c
  8
Layer_0
  10
200.79724
  20
242.61992
  0
VERTEX
  5
17d
  8
Layer_0
  10
200.85156
  20
241.50781
  0
VERTEX
  5
17e
  8
Layer_0
  10
200.89352
  20
239.83966
  0
VERTEX
  5
17f
  8
Layer_0
  10
200.8838
  20
238.21741
  0
VERTEX
  5
180
  8
Layer_0
  10
200.81944
  20
236.60889
  0
VERTEX
  5
181
  8
Layer_0
  10
200.69749
  20
234.98189
  0
VERTEX
  5
182
  8
Layer_0
  10
200.61398
  20
234.1514
  0
VERTEX
  5
183
  8
Layer_0
  10
200.51495
  20
233.30424
  0
VERTEX
  5
184
  8
Layer_0
  10
200.40005
  20
232.43637
  0
VERTEX
  5
185
  8
Layer_0
  10
200.26889
  20
231.54376
  0
VERTEX
  5
186
  8
Layer_0
  10
200.12112
  20
230.62239
  0
VERTEX
  5
187
  8
Layer_0
  10
199.95634
  20
229.66824
  0
VERTEX
  5
188
  8
Layer_0
  10
199.7742
  20
228.67729
  0
VERTEX
  5
189
  8
Layer_0
  10
199.5743
  20
227.64551
  0
VERTEX
  5
18a
  8
Layer_0
  10
199.23602
  20
226.0217
  0
VERTEX
  5
18b
  8
Layer_0
  10
198.87949
  20
224.47295
  0
VERTEX
  5
18c
  8
Layer_0
  10
198.50348
  20
222.99646
  0
VERTEX
  5
18d
  8
Layer_0
  10
198.10672
  20
221.58943
  0
VERTEX
  5
18e
  8
Layer_0
  10
197.68796
  20
220.24905
  0
VERTEX
  5
18f
  8
Layer_0
  10
197.24594
  20
218.97253
  0
VERTEX
  5
190
  8
Layer_0
  10
196.77939
  20
217.75705
  0
VERTEX
  5
191
  8
Layer_0
  10
196.28708
  20
216.59979
  0
VERTEX
  5
192
  8
Layer_0
  10
195.76772
  20
215.49797
  0
VERTEX
  5
193
  8
Layer_0
  10
195.22008
  20
214.44876
  0
VERTEX
  5
194
  8
Layer_0
  10
194.6429
  20
213.44939
  0
VERTEX
  5
195
  8
Layer_0
  10
194.03491
  20
212.49701
  0
VERTEX
  5
196
  8
Layer_0
  10
193.39487
  20
211.58884
  0
VERTEX
  5
197
  8
Layer_0
  10
192.72153
  20
210.72208
  0
VERTEX
  5
198
  8
Layer_0
  10
192.01358
  20
209.89391
  0
VERTEX
  5
199
  8
Layer_0
  10
191.26982
  20
209.10152
  0
VERTEX
  5
19a
  8
Layer_0
  10
190.84619
  20
208.67459
  0
VERTEX
  5
19b
  8
Layer_0
  10
190.45401
  20
208.28891
  0
VERTEX
  5
19c
  8
Layer_0
  10
190.08923
  20
207.94194
  0
VERTEX
  5
19d
  8
Layer_0
  10
189.7478
  20
207.63116
  0
VERTEX
  5
19e
  8
Layer_0
  10
189.42566
  20
207.35403
  0
VERTEX
  5
19f
  8
Layer_0
  10
189.11879
  20
207.108
  0
VERTEX
  5
1a0
  8
Layer_0
  10
188.82309
  20
206.89056
  0
VERTEX
  5
1a1
  8
Layer_0
  10
188.53455
  20
206.69916
  0
VERTEX
  5
1a2
  8
Layer_0
  10
187.96268
  20
206.38434
  0
VERTEX
  5
1a3
  8
Layer_0
  10
187.37079
  20
206.14325
  0
VERTEX
  5
1a4
  8
Layer_0
  10
186.72647
  20
205.95561
  0
VERTEX
  5
1a5
  8
Layer_0
  10
185.99734
  20
205.80115
  0
VERTEX
  5
1a6
  8
Layer_0
  10
185.38263
  20
205.71634
  0
VERTEX
  5
1a7
  8
Layer_0
  10
184.73611
  20
205.69266
  0
VERTEX
  5
1a8
  8
Layer_0
  10
184.38879
  20
205.70593
  0
VERTEX
  5
1a9
  8
Layer_0
  10
184.01895
  20
205.73708
  0
VERTEX
  5
1aa
  8
Layer_0
  10
183.6217
  20
205.78697
  0
VERTEX
  5
1ab
  8
Layer_0
  10
183.19223
  20
205.85648
  0
VERTEX
  5
1ac
  8
Layer_0
  10
182.72562
  20
205.94647
  0
VERTEX
  5
1ad
  8
Layer_0
  10
182.21704
  20
206.05783
  0
VERTEX
  5
1ae
  8
Layer_0
  10
181.66164
  20
206.19139
  0
VERTEX
  5
1af
  8
Layer_0
  10
181.05453
  20
206.34804
  0
VERTEX
  5
1b0
  8
Layer_0
  10
180.39085
  20
206.52863
  0
VERTEX
  5
1b1
  8
Layer_0
  10
179.66577
  20
206.73402
  0
VERTEX
  5
1b2
  8
Layer_0
  10
178.87439
  20
206.9651
  0
VERTEX
  5
1b3
  8
Layer_0
  10
178.01186
  20
207.22272
  0
VERTEX
  5
1b4
  8
Layer_0
  10
177.37451
  20
207.41913
  0
VERTEX
  5
1b5
  8
Layer_0
  10
176.78354
  20
207.61086
  0
VERTEX
  5
1b6
  8
Layer_0
  10
176.2355
  20
207.79977
  0
VERTEX
  5
1b7
  8
Layer_0
  10
175.72699
  20
207.98776
  0
VERTEX
  5
1b8
  8
Layer_0
  10
175.25458
  20
208.17674
  0
VERTEX
  5
1b9
  8
Layer_0
  10
174.81485
  20
208.36862
  0
VERTEX
  5
1ba
  8
Layer_0
  10
174.40437
  20
208.56529
  0
VERTEX
  5
1bb
  8
Layer_0
  10
174.01973
  20
208.76868
  0
VERTEX
  5
1bc
  8
Layer_0
  10
173.31427
  20
209.20316
  0
VERTEX
  5
1bd
  8
Layer_0
  10
172.67105
  20
209.68726
  0
VERTEX
  5
1be
  8
Layer_0
  10
172.06271
  20
210.23625
  0
VERTEX
  5
1bf
  8
Layer_0
  10
171.46191
  20
210.86536
  0
VERTEX
  5
1c0
  8
Layer_0
  10
171.05733
  20
211.3476
  0
VERTEX
  5
1c1
  8
Layer_0
  10
170.68866
  20
211.85811
  0
VERTEX
  5
1c2
  8
Layer_0
  10
170.35452
  20
212.40395
  0
VERTEX
  5
1c3
  8
Layer_0
  10
170.05356
  20
212.99216
  0
VERTEX
  5
1c4
  8
Layer_0
  10
169.78436
  20
213.62981
  0
VERTEX
  5
1c5
  8
Layer_0
  10
169.54559
  20
214.32394
  0
VERTEX
  5
1c6
  8
Layer_0
  10
169.33585
  20
215.08163
  0
VERTEX
  5
1c7
  8
Layer_0
  10
169.15378
  20
215.90997
  0
VERTEX
  5
1c8
  8
Layer_0
  10
168.99799
  20
216.81598
  0
VERTEX
  5
1c9
  8
Layer_0
  10
168.8671
  20
217.8067
  0
VERTEX
  5
1ca
  8
Layer_0
  10
168.81055
  20
218.33606
  0
VERTEX
  5
1cb
  8
Layer_0
  10
168.75974
  20
218.88925
  0
VERTEX
  5
1cc
  8
Layer_0
  10
168.71445
  20
219.46715
  0
VERTEX
  5
1cd
  8
Layer_0
  10
168.67453
  20
220.07063
  0
VERTEX
  5
1ce
  8
Layer_0
  10
168.63982
  20
220.70059
  0
VERTEX
  5
1cf
  8
Layer_0
  10
168.61011
  20
221.35794
  0
VERTEX
  5
1d0
  8
Layer_0
  10
168.58527
  20
222.04352
  0
VERTEX
  5
1d1
  8
Layer_0
  10
168.56509
  20
222.75821
  0
VERTEX
  5
1d2
  8
Layer_0
  10
168.54944
  20
223.50293
  0
VERTEX
  5
1d3
  8
Layer_0
  10
168.53812
  20
224.27853
  0
VERTEX
  5
1d4
  8
Layer_0
  10
168.53094
  20
225.08591
  0
VERTEX
  5
1d5
  8
Layer_0
  10
168.52779
  20
225.92593
  0
VERTEX
  5
1d6
  8
Layer_0
  10
168.52776
  20
226.84633
  0
VERTEX
  5
1d7
  8
Layer_0
  10
168.53052
  20
227.6992
  0
VERTEX
  5
1d8
  8
Layer_0
  10
168.53635
  20
228.48947
  0
VERTEX
  5
1d9
  8
Layer_0
  10
168.5455
  20
229.22211
  0
VERTEX
  5
1da
  8
Layer_0
  10
168.55823
  20
229.90204
  0
VERTEX
  5
1db
  8
Layer_0
  10
168.57474
  20
230.53421
  0
VERTEX
  5
1dc
  8
Layer_0
  10
168.59534
  20
231.12355
  0
VERTEX
  5
1dd
  8
Layer_0
  10
168.62027
  20
231.67506
  0
VERTEX
  5
1de
  8
Layer_0
  10
168.68408
  20
232.68427
  0
VERTEX
  5
1df
  8
Layer_0
  10
168.76822
  20
233.60135
  0
VERTEX
  5
1e0
  8
Layer_0
  10
168.87466
  20
234.46588
  0
VERTEX
  5
1e1
  8
Layer_0
  10
169.00543
  20
235.31747
  0
VERTEX
  5
1e2
  8
Layer_0
  10
169.252
  20
236.71652
  0
VERTEX
  5
1e3
  8
Layer_0
  10
169.52118
  20
238.10278
  0
VERTEX
  5
1e4
  8
Layer_0
  10
169.81244
  20
239.47453
  0
VERTEX
  5
1e5
  8
Layer_0
  10
170.12521
  20
240.83005
  0
VERTEX
  5
1e6
  8
Layer_0
  10
170.45895
  20
242.16757
  0
VERTEX
  5
1e7
  8
Layer_0
  10
170.81311
  20
243.48541
  0
VERTEX
  5
1e8
  8
Layer_0
  10
171.18712
  20
244.78183
  0
VERTEX
  5
1e9
  8
Layer_0
  10
171.58044
  20
246.0551
  0
VERTEX
  5
1ea
  8
Layer_0
  10
171.99254
  20
247.30348
  0
VERTEX
  5
1eb
  8
Layer_0
  10
172.42285
  20
248.52527
  0
VERTEX
  5
1ec
  8
Layer_0
  10
172.87079
  20
249.71875
  0
VERTEX
  5
1ed
  8
Layer_0
  10
173.33586
  20
250.88214
  0
VERTEX
  5
1ee
  8
Layer_0
  10
173.81747
  20
252.01376
  0
VERTEX
  5
1ef
  8
Layer_0
  10
174.31509
  20
253.11189
  0
VERTEX
  5
1f0
  8
Layer_0
  10
174.82817
  20
254.17477
  0
VERTEX
  5
1f1
  8
Layer_0
  10
175.35614
  20
255.20071
  0
VERTEX
  5
1f2
  8
Layer_0
  10
175.75311
  20
255.91913
  0
VERTEX
  5
1f3
  8
Layer_0
  10
176.15042
  20
256.5802
  0
VERTEX
  5
1f4
  8
Layer_0
  10
176.54987
  20
257.18521
  0
VERTEX
  5
1f5
  8
Layer_0
  10
176.95316
  20
257.73541
  0
VERTEX
  5
1f6
  8
Layer_0
  10
177.36206
  20
258.23199
  0
VERTEX
  5
1f7
  8
Layer_0
  10
177.77827
  20
258.67633
  0
VERTEX
  5
1f8
  8
Layer_0
  10
178.20358
  20
259.06958
  0
VERTEX
  5
1f9
  8
Layer_0
  10
178.63971
  20
259.41309
  0
VERTEX
  5
1fa
  8
Layer_0
  10
179.08841
  20
259.70801
  0
VERTEX
  5
1fb
  8
Layer_0
  10
179.55145
  20
259.95569
  0
VERTEX
  5
1fc
  8
Layer_0
  10
180.03055
  20
260.15735
  0
VERTEX
  5
1fd
  8
Layer_0
  10
180.52744
  20
260.31427
  0
VERTEX
  5
1fe
  8
Layer_0
  10
181.04388
  20
260.42767
  0
VERTEX
  5
1ff
  8
Layer_0
  10
181.5816
  20
260.49887
  0
VERTEX
  5
200
  8
Layer_0
  10
182.14238
  20
260.52905
  0
VERTEX
  5
201
  8
Layer_0
  10
182.72795
  20
260.51953
  0
VERTEX
  5
202
  8
Layer_0
  10
183.25143
  20
260.48764
  0
VERTEX
  5
203
  8
Layer_0
  10
183.69312
  20
260.44281
  0
VERTEX
  5
204
  8
Layer_0
  10
184.07343
  20
260.37842
  0
VERTEX
  5
205
  8
Layer_0
  10
184.41281
  20
260.28778
  0
VERTEX
  5
206
  8
Layer_0
  10
184.73174
  20
260.16431
  0
VERTEX
  5
207
  8
Layer_0
  10
185.05066
  20
260.00125
  0
VERTEX
  5
208
  8
Layer_0
  10
185.39001
  20
259.79202
  0
VERTEX
  5
209
  8
Layer_0
  10
185.77028
  20
259.52994
  0
SEQEND
  0
POLYLINE
  5
20b
  8
Layer_0
  62
0
  70
1
  66
1
  10
0
  20
0
  30
0
  0
VERTEX
  5
20b
  8
Layer_0
  10
326.89679
  20
257.92847
  0
VERTEX
  5
20c
  8
Layer_0
  10
327.36682
  20
257.77542
  0
VERTEX
  5
20d
  8
Layer_0
  10
327.78653
  20
257.59286
  0
VERTEX
  5
20e
  8
Layer_0
  10
328.15198
  20
257.38425
  0
VERTEX
  5
20f
  8
Layer_0
  10
328.45926
  20
257.15292
  0
VERTEX
  5
210
  8
Layer_0
  10
328.70453
  20
256.90228
  0
VERTEX
  5
211
  8
Layer_0
  10
328.88385
  20
256.6358
  0
VERTEX
  5
212
  8
Layer_0
  10
328.99338
  20
256.35678
  0
VERTEX
  5
213
  8
Layer_0
  10
329.02921
  20
256.06866
  0
VERTEX
  5
214
  8
Layer_0
  10
329.00946
  20
255.96381
  0
VERTEX
  5
215
  8
Layer_0
  10
328.95251
  20
255.78513
  0
VERTEX
  5
216
  8
Layer_0
  10
328.86035
  20
255.53687
  0
VERTEX
  5
217
  8
Layer_0
  10
328.7348
  20
255.22314
  0
VERTEX
  5
218
  8
Layer_0
  10
328.57776
  20
254.84824
  0
VERTEX
  5
219
  8
Layer_0
  10
328.39124
  20
254.41629
  0
VERTEX
  5
21a
  8
Layer_0
  10
328.177
  20
253.9315
  0
VERTEX
  5
21b
  8
Layer_0
  10
327.93701
  20
253.39809
  0
VERTEX
  5
21c
  8
Layer_0
  10
327.67316
  20
252.82022
  0
VERTEX
  5
21d
  8
Layer_0
  10
327.38739
  20
252.20215
  0
VERTEX
  5
21e
  8
Layer_0
  10
327.08157
  20
251.54803
  0
VERTEX
  5
21f
  8
Layer_0
  10
326.7576
  20
250.86206
  0
VERTEX
  5
220
  8
Layer_0
  10
326.06287
  20
249.41135
  0
VERTEX
  5
221
  8
Layer_0
  10
325.31836
  20
247.88361
  0
VERTEX
  5
222
  8
Layer_0
  10
324.83987
  20
246.90762
  0
VERTEX
  5
223
  8
Layer_0
  10
324.37738
  20
245.95885
  0
VERTEX
  5
224
  8
Layer_0
  10
323.92926
  20
245.03339
  0
VERTEX
  5
225
  8
Layer_0
  10
323.4938
  20
244.12738
  0
VERTEX
  5
226
  8
Layer_0
  10
322.65466
  20
242.35806
  0
VERTEX
  5
227
  8
Layer_0
  10
321.84698
  20
240.61975
  0
VERTEX
  5
228
  8
Layer_0
  10
321.0578
  20
238.88132
  0
VERTEX
  5
229
  8
Layer_0
  10
320.27414
  20
237.11163
  0
VERTEX
  5
22a
  8
Layer_0
  10
319.48303
  20
235.27954
  0
VERTEX
  5
22b
  8
Layer_0
  10
318.67151
  20
233.35397
  0
VERTEX
  5
22c
  8
Layer_0
  10
318.25403
  20
232.34637
  0
VERTEX
  5
22d
  8
Layer_0
  10
317.8266
  20
231.30371
  0
VERTEX
  5
22e
  8
Layer_0
  10
317.38757
  20
230.22212
  0
VERTEX
  5
22f
  8
Layer_0
  10
316.9353
  20
229.09769
  0
VERTEX
  5
230
  8
Layer_0
  10
316.4682
  20
227.92653
  0
VERTEX
  5
231
  8
Layer_0
  10
315.98465
  20
226.70474
  0
VERTEX
  5
232
  8
Layer_0
  10
315.48303
  20
225.42844
  0
VERTEX
  5
233
  8
Layer_0
  10
314.96173
  20
224.09375
  0
VERTEX
  5
234
  8
Layer_0
  10
314.4191
  20
222.69676
  0
VERTEX
  5
235
  8
Layer_0
  10
313.85355
  20
221.23358
  0
VERTEX
  5
236
  8
Layer_0
  10
313.26343
  20
219.70032
  0
VERTEX
  5
237
  8
Layer_0
  10
312.64709
  20
218.09308
  0
VERTEX
  5
238
  8
Layer_0
  10
311.32944
  20
214.64111
  0
VERTEX
  5
239
  8
Layer_0
  10
309.88757
  20
210.84657
  0
VERTEX
  5
23a
  8
Layer_0
  10
308.67499
  20
207.64285
  0
VERTEX
  5
23b
  8
Layer_0
  10
307.64459
  20
204.9028
  0
VERTEX
  5
23c
  8
Layer_0
  10
307.0506
  20
203.30957
  0
VERTEX
  5
23d
  8
Layer_0
  10
306.52518
  20
201.88626
  0
VERTEX
  5
23e
  8
Layer_0
  10
306.06329
  20
200.61842
  0
VERTEX
  5
23f
  8
Layer_0
  10
305.65997
  20
199.49158
  0
VERTEX
  5
240
  8
Layer_0
  10
305.4787
  20
198.97653
  0
VERTEX
  5
241
  8
Layer_0
  10
305.31024
  20
198.4913
  0
VERTEX
  5
242
  8
Layer_0
  10
305.15396
  20
198.0341
  0
VERTEX
  5
243
  8
Layer_0
  10
305.00916
  20
197.60312
  0
VERTEX
  5
244
  8
Layer_0
  10
304.87524
  20
197.19655
  0
VERTEX
  5
245
  8
Layer_0
  10
304.75165
  20
196.81259
  0
VERTEX
  5
246
  8
Layer_0
  10
304.53284
  20
196.10526
  0
VERTEX
  5
247
  8
Layer_0
  10
304.34772
  20
195.46664
  0
VERTEX
  5
248
  8
Layer_0
  10
304.19128
  20
194.88232
  0
VERTEX
  5
249
  8
Layer_0
  10
304.0585
  20
194.33783
  0
VERTEX
  5
24a
  8
Layer_0
  10
303.94446
  20
193.8187
  0
VERTEX
  5
24b
  8
Layer_0
  10
303.75815
  20
192.88223
  0
VERTEX
  5
24c
  8
Layer_0
  10
303.66675
  20
192.50179
  0
VERTEX
  5
24d
  8
Layer_0
  10
303.56546
  20
192.16669
  0
VERTEX
  5
24e
  8
Layer_0
  10
303.44974
  20
191.87444
  0
VERTEX
  5
24f
  8
Layer_0
  10
303.31506
  20
191.62253
  0
VERTEX
  5
250
  8
Layer_0
  10
303.15686
  20
191.40845
  0
VERTEX
  5
251
  8
Layer_0
  10
302.97064
  20
191.22974
  0
VERTEX
  5
252
  8
Layer_0
  10
302.75183
  20
191.08386
  0
VERTEX
  5
253
  8
Layer_0
  10
302.49594
  20
190.96835
  0
VERTEX
  5
254
  8
Layer_0
  10
302.19843
  20
190.88069
  0
VERTEX
  5
255
  8
Layer_0
  10
301.85471
  20
190.81839
  0
VERTEX
  5
256
  8
Layer_0
  10
301.46027
  20
190.77898
  0
VERTEX
  5
257
  8
Layer_0
  10
301.01062
  20
190.75992
  0
VERTEX
  5
258
  8
Layer_0
  10
300.50119
  20
190.75873
  0
VERTEX
  5
259
  8
Layer_0
  10
299.92743
  20
190.77292
  0
VERTEX
  5
25a
  8
Layer_0
  10
299.28485
  20
190.79999
  0
VERTEX
  5
25b
  8
Layer_0
  10
296.68671
  20
190.92511
  0
VERTEX
  5
25c
  8
Layer_0
  10
296.15576
  20
190.06604
  0
VERTEX
  5
25d
  8
Layer_0
  10
295.93488
  20
189.76108
  0
VERTEX
  5
25e
  8
Layer_0
  10
295.65881
  20
189.46945
  0
VERTEX
  5
25f
  8
Layer_0
  10
295.33014
  20
189.19202
  0
VERTEX
  5
260
  8
Layer_0
  10
294.95145
  20
188.92958
  0
VERTEX
  5
261
  8
Layer_0
  10
294.52521
  20
188.68298
  0
VERTEX
  5
262
  8
Layer_0
  10
294.05408
  20
188.45306
  0
VERTEX
  5
263
  8
Layer_0
  10
293.54053
  20
188.24063
  0
VERTEX
  5
264
  8
Layer_0
  10
292.98718
  20
188.04651
  0
VERTEX
  5
265
  8
Layer_0
  10
292.39658
  20
187.87152
  0
VERTEX
  5
266
  8
Layer_0
  10
291.7713
  20
187.71649
  0
VERTEX
  5
267
  8
Layer_0
  10
291.11383
  20
187.58224
  0
VERTEX
  5
268
  8
Layer_0
  10
290.42676
  20
187.46964
  0
VERTEX
  5
269
  8
Layer_0
  10
289.71265
  20
187.37946
  0
VERTEX
  5
26a
  8
Layer_0
  10
288.97412
  20
187.31253
  0
VERTEX
  5
26b
  8
Layer_0
  10
288.21362
  20
187.26971
  0
VERTEX
  5
26c
  8
Layer_0
  10
287.43384
  20
187.2518
  0
VERTEX
  5
26d
  8
Layer_0
  10
286.20895
  20
187.27173
  0
VERTEX
  5
26e
  8
Layer_0
  10
285.00195
  20
187.3481
  0
VERTEX
  5
26f
  8
Layer_0
  10
283.81149
  20
187.48141
  0
VERTEX
  5
270
  8
Layer_0
  10
282.63629
  20
187.67221
  0
VERTEX
  5
271
  8
Layer_0
  10
281.47504
  20
187.92099
  0
VERTEX
  5
272
  8
Layer_0
  10
280.32648
  20
188.2283
  0
VERTEX
  5
273
  8
Layer_0
  10
279.1893
  20
188.59464
  0
VERTEX
  5
274
  8
Layer_0
  10
278.06226
  20
189.02055
  0
VERTEX
  5
275
  8
Layer_0
  10
276.94403
  20
189.50656
  0
VERTEX
  5
276
  8
Layer_0
  10
275.83331
  20
190.05316
  0
VERTEX
  5
277
  8
Layer_0
  10
274.72882
  20
190.66092
  0
VERTEX
  5
278
  8
Layer_0
  10
273.62933
  20
191.33032
  0
VERTEX
  5
279
  8
Layer_0
  10
272.53351
  20
192.06192
  0
VERTEX
  5
27a
  8
Layer_0
  10
271.44006
  20
192.8562
  0
VERTEX
  5
27b
  8
Layer_0
  10
270.34772
  20
193.71371
  0
VERTEX
  5
27c
  8
Layer_0
  10
269.25513
  20
194.63501
  0
VERTEX
  5
27d
  8
Layer_0
  10
268.86798
  20
194.96759
  0
VERTEX
  5
27e
  8
Layer_0
  10
268.50684
  20
195.26819
  0
VERTEX
  5
27f
  8
Layer_0
  10
268.17957
  20
195.53085
  0
VERTEX
  5
280
  8
Layer_0
  10
267.8941
  20
195.74974
  0
VERTEX
  5
281
  8
Layer_0
  10
267.65826
  20
195.91896
  0
VERTEX
  5
282
  8
Layer_0
  10
267.48007
  20
196.03262
  0
VERTEX
  5
283
  8
Layer_0
  10
267.36734
  20
196.08481
  0
VERTEX
  5
284
  8
Layer_0
  10
267.328
  20
196.0697
  0
VERTEX
  5
285
  8
Layer_0
  10
267.32556
  20
195.99217
  0
VERTEX
  5
286
  8
Layer_0
  10
267.3183
  20
195.87555
  0
VERTEX
  5
287
  8
Layer_0
  10
267.29047
  20
195.53308
  0
VERTEX
  5
288
  8
Layer_0
  10
267.21857
  20
194.77628
  0
VERTEX
  5
289
  8
Layer_0
  10
267.11584
  20
193.77582
  0
VERTEX
  5
28a
  8
Layer_0
  10
267.0332
  20
193.00012
  0
VERTEX
  5
28b
  8
Layer_0
  10
266.84204
  20
191.25983
  0
VERTEX
  5
28c
  8
Layer_0
  10
266.62823
  20
189.37436
  0
VERTEX
  5
28d
  8
Layer_0
  10
266.40619
  20
187.47173
  0
VERTEX
  5
28e
  8
Layer_0
  10
266.29651
  20
186.55399
  0
VERTEX
  5
28f
  8
Layer_0
  10
266.19006
  20
185.67993
  0
VERTEX
  5
290
  8
Layer_0
  10
266.08875
  20
184.8656
  0
VERTEX
  5
291
  8
Layer_0
  10
265.88232
  20
183.24458
  0
VERTEX
  5
292
  8
Layer_0
  10
265.76874
  20
182.30786
  0
VERTEX
  5
293
  8
Layer_0
  10
265.65662
  20
181.34549
  0
VERTEX
  5
294
  8
Layer_0
  10
265.5491
  20
180.38605
  0
VERTEX
  5
295
  8
Layer_0
  10
265.44934
  20
179.45815
  0
VERTEX
  5
296
  8
Layer_0
  10
265.36047
  20
178.59044
  0
VERTEX
  5
297
  8
Layer_0
  10
265.28564
  20
177.81149
  0
VERTEX
  5
298
  8
Layer_0
  10
265.22803
  20
177.14999
  0
VERTEX
  5
299
  8
Layer_0
  10
265.16779
  20
176.47478
  0
VERTEX
  5
29a
  8
Layer_0
  10
265.10248
  20
175.8746
  0
VERTEX
  5
29b
  8
Layer_0
  10
265.03217
  20
175.35017
  0
VERTEX
  5
29c
  8
Layer_0
  10
264.95703
  20
174.90221
  0
VERTEX
  5
29d
  8
Layer_0
  10
264.8772
  20
174.5314
  0
VERTEX
  5
29e
  8
Layer_0
  10
264.79279
  20
174.23846
  0
VERTEX
  5
29f
  8
Layer_0
  10
264.70392
  20
174.02408
  0
VERTEX
  5
2a0
  8
Layer_0
  10
264.61078
  20
173.88896
  0
VERTEX
  5
2a1
  8
Layer_0
  10
264.37244
  20
173.69766
  0
VERTEX
  5
2a2
  8
Layer_0
  10
264.08759
  20
173.54984
  0
VERTEX
  5
2a3
  8
Layer_0
  10
263.76111
  20
173.44432
  0
VERTEX
  5
2a4
  8
Layer_0
  10
263.39798
  20
173.37997
  0
VERTEX
  5
2a5
  8
Layer_0
  10
263.00317
  20
173.35568
  0
VERTEX
  5
2a6
  8
Layer_0
  10
262.58167
  20
173.3703
  0
VERTEX
  5
2a7
  8
Layer_0
  10
262.13843
  20
173.4227
  0
VERTEX
  5
2a8
  8
Layer_0
  10
261.67838
  20
173.51175
  0
VERTEX
  5
2a9
  8
Layer_0
  10
261.20648
  20
173.63629
  0
VERTEX
  5
2aa
  8
Layer_0
  10
260.72769
  20
173.79521
  0
VERTEX
  5
2ab
  8
Layer_0
  10
260.24695
  20
173.98737
  0
VERTEX
  5
2ac
  8
Layer_0
  10
259.76926
  20
174.21161
  0
VERTEX
  5
2ad
  8
Layer_0
  10
259.29953
  20
174.46681
  0
VERTEX
  5
2ae
  8
Layer_0
  10
258.84277
  20
174.75183
  0
VERTEX
  5
2af
  8
Layer_0
  10
258.40393
  20
175.06554
  0
VERTEX
  5
2b0
  8
Layer_0
  10
257.98795
  20
175.4068
  0
VERTEX
  5
2b1
  8
Layer_0
  10
256.79449
  20
176.45732
  0
VERTEX
  5
2b2
  8
Layer_0
  10
256.81619
  20
174.00909
  0
VERTEX
  5
2b3
  8
Layer_0
  10
256.8139
  20
173.28108
  0
VERTEX
  5
2b4
  8
Layer_0
  10
256.7915
  20
172.6228
  0
VERTEX
  5
2b5
  8
Layer_0
  10
256.74579
  20
172.03008
  0
VERTEX
  5
2b6
  8
Layer_0
  10
256.67358
  20
171.4987
  0
VERTEX
  5
2b7
  8
Layer_0
  10
256.57178
  20
171.02448
  0
VERTEX
  5
2b8
  8
Layer_0
  10
256.43719
  20
170.60316
  0
VERTEX
  5
2b9
  8
Layer_0
  10
256.26672
  20
170.23059
  0
VERTEX
  5
2ba
  8
Layer_0
  10
256.05719
  20
169.90253
  0
VERTEX
  5
2bb
  8
Layer_0
  10
255.80545
  20
169.61481
  0
VERTEX
  5
2bc
  8
Layer_0
  10
255.50833
  20
169.36319
  0
VERTEX
  5
2bd
  8
Layer_0
  10
255.16272
  20
169.14349
  0
VERTEX
  5
2be
  8
Layer_0
  10
254.76544
  20
168.95149
  0
VERTEX
  5
2bf
  8
Layer_0
  10
254.31335
  20
168.78299
  0
VERTEX
  5
2c0
  8
Layer_0
  10
253.80331
  20
168.63379
  0
VERTEX
  5
2c1
  8
Layer_0
  10
253.23215
  20
168.49968
  0
VERTEX
  5
2c2
  8
Layer_0
  10
252.59674
  20
168.37646
  0
VERTEX
  5
2c3
  8
Layer_0
  10
251.86014
  20
168.25507
  0
VERTEX
  5
2c4
  8
Layer_0
  10
251.16693
  20
168.16144
  0
VERTEX
  5
2c5
  8
Layer_0
  10
250.51617
  20
168.09583
  0
VERTEX
  5
2c6
  8
Layer_0
  10
249.90689
  20
168.05838
  0
VERTEX
  5
2c7
  8
Layer_0
  10
249.33812
  20
168.04932
  0
VERTEX
  5
2c8
  8
Layer_0
  10
248.80891
  20
168.06888
  0
VERTEX
  5
2c9
  8
Layer_0
  10
248.31833
  20
168.11722
  0
VERTEX
  5
2ca
  8
Layer_0
  10
247.86537
  20
168.19458
  0
VERTEX
  5
2cb
  8
Layer_0
  10
247.4491
  20
168.30115
  0
VERTEX
  5
2cc
  8
Layer_0
  10
247.06854
  20
168.4371
  0
VERTEX
  5
2cd
  8
Layer_0
  10
246.72275
  20
168.60269
  0
VERTEX
  5
2ce
  8
Layer_0
  10
246.41077
  20
168.79808
  0
VERTEX
  5
2cf
  8
Layer_0
  10
246.13161
  20
169.0235
  0
VERTEX
  5
2d0
  8
Layer_0
  10
245.88434
  20
169.27914
  0
VERTEX
  5
2d1
  8
Layer_0
  10
245.668
  20
169.5652
  0
VERTEX
  5
2d2
  8
Layer_0
  10
245.48161
  20
169.8819
  0
VERTEX
  5
2d3
  8
Layer_0
  10
245.42998
  20
170.00075
  0
VERTEX
  5
2d4
  8
Layer_0
  10
245.37532
  20
170.16283
  0
VERTEX
  5
2d5
  8
Layer_0
  10
245.31787
  20
170.36691
  0
VERTEX
  5
2d6
  8
Layer_0
  10
245.2578
  20
170.61177
  0
VERTEX
  5
2d7
  8
Layer_0
  10
245.19534
  20
170.89618
  0
VERTEX
  5
2d8
  8
Layer_0
  10
245.13069
  20
171.21887
  0
VERTEX
  5
2d9
  8
Layer_0
  10
245.06406
  20
171.57864
  0
VERTEX
  5
2da
  8
Layer_0
  10
244.99567
  20
171.97424
  0
VERTEX
  5
2db
  8
Layer_0
  10
244.9257
  20
172.40446
  0
VERTEX
  5
2dc
  8
Layer_0
  10
244.85437
  20
172.86804
  0
VERTEX
  5
2dd
  8
Layer_0
  10
244.78188
  20
173.36377
  0
VERTEX
  5
2de
  8
Layer_0
  10
244.70844
  20
173.8904
  0
VERTEX
  5
2df
  8
Layer_0
  10
244.63426
  20
174.44669
  0
VERTEX
  5
2e0
  8
Layer_0
  10
244.55956
  20
175.0314
  0
VERTEX
  5
2e1
  8
Layer_0
  10
244.48451
  20
175.64334
  0
VERTEX
  5
2e2
  8
Layer_0
  10
244.2778
  20
177.40245
  0
VERTEX
  5
2e3
  8
Layer_0
  10
244.15062
  20
178.4529
  0
VERTEX
  5
2e4
  8
Layer_0
  10
244.03094
  20
179.40924
  0
VERTEX
  5
2e5
  8
Layer_0
  10
243.92188
  20
180.2482
  0
VERTEX
  5
2e6
  8
Layer_0
  10
243.82648
  20
180.94644
  0
VERTEX
  5
2e7
  8
Layer_0
  10
243.74789
  20
181.48065
  0
VERTEX
  5
2e8
  8
Layer_0
  10
243.71585
  20
181.67896
  0
VERTEX
  5
2e9
  8
Layer_0
  10
243.68921
  20
181.82753
  0
VERTEX
  5
2ea
  8
Layer_0
  10
243.66827
  20
181.92345
  0
VERTEX
  5
2eb
  8
Layer_0
  10
243.65349
  20
181.96378
  0
VERTEX
  5
2ec
  8
Layer_0
  10
243.60384
  20
181.97639
  0
VERTEX
  5
2ed
  8
Layer_0
  10
243.51366
  20
181.95795
  0
VERTEX
  5
2ee
  8
Layer_0
  10
243.38504
  20
181.90987
  0
VERTEX
  5
2ef
  8
Layer_0
  10
243.22009
  20
181.83362
  0
VERTEX
  5
2f0
  8
Layer_0
  10
243.02092
  20
181.73065
  0
VERTEX
  5
2f1
  8
Layer_0
  10
242.78963
  20
181.60242
  0
VERTEX
  5
2f2
  8
Layer_0
  10
242.52834
  20
181.45041
  0
VERTEX
  5
2f3
  8
Layer_0
  10
242.23914
  20
181.27608
  0
VERTEX
  5
2f4
  8
Layer_0
  10
241.92415
  20
181.08084
  0
VERTEX
  5
2f5
  8
Layer_0
  10
241.58546
  20
180.8662
  0
VERTEX
  5
2f6
  8
Layer_0
  10
241.22522
  20
180.63361
  0
VERTEX
  5
2f7
  8
Layer_0
  10
240.84547
  20
180.38449
  0
VERTEX
  5
2f8
  8
Layer_0
  10
240.03604
  20
179.84259
  0
VERTEX
  5
2f9
  8
Layer_0
  10
239.17398
  20
179.2522
  0
VERTEX
  5
2fa
  8
Layer_0
  10
237.35956
  20
177.9725
  0
VERTEX
  5
2fb
  8
Layer_0
  10
235.53705
  20
176.63875
  0
VERTEX
  5
2fc
  8
Layer_0
  10
234.66493
  20
175.98076
  0
VERTEX
  5
2fd
  8
Layer_0
  10
233.84137
  20
175.34424
  0
VERTEX
  5
2fe
  8
Layer_0
  10
233.08324
  20
174.74088
  0
VERTEX
  5
2ff
  8
Layer_0
  10
232.40739
  20
174.18233
  0
VERTEX
  5
300
  8
Layer_0
  10
231.19302
  20
173.15221
  0
VERTEX
  5
301
  8
Layer_0
  10
230.7019
  20
172.72493
  0
VERTEX
  5
302
  8
Layer_0
  10
230.27837
  20
172.34039
  0
VERTEX
  5
303
  8
Layer_0
  10
229.91505
  20
171.98676
  0
VERTEX
  5
304
  8
Layer_0
  10
229.60458
  20
171.65216
  0
VERTEX
  5
305
  8
Layer_0
  10
229.33961
  20
171.32478
  0
VERTEX
  5
306
  8
Layer_0
  10
229.11281
  20
170.9928
  0
VERTEX
  5
307
  8
Layer_0
  10
228.91678
  20
170.64435
  0
VERTEX
  5
308
  8
Layer_0
  10
228.74417
  20
170.26759
  0
VERTEX
  5
309
  8
Layer_0
  10
228.58763
  20
169.85071
  0
VERTEX
  5
30a
  8
Layer_0
  10
228.4398
  20
169.38181
  0
VERTEX
  5
30b
  8
Layer_0
  10
228.29333
  20
168.84909
  0
VERTEX
  5
30c
  8
Layer_0
  10
228.14087
  20
168.24069
  0
VERTEX
  5
30d
  8
Layer_0
  10
227.97502
  20
167.5448
  0
VERTEX
  5
30e
  8
Layer_0
  10
227.58549
  20
165.87062
  0
VERTEX
  5
30f
  8
Layer_0
  10
227.37022
  20
164.9117
  0
VERTEX
  5
310
  8
Layer_0
  10
227.1492
  20
163.9037
  0
VERTEX
  5
311
  8
Layer_0
  10
226.92902
  20
162.87753
  0
VERTEX
  5
312
  8
Layer_0
  10
226.71622
  20
161.86415
  0
VERTEX
  5
313
  8
Layer_0
  10
226.51736
  20
160.89445
  0
VERTEX
  5
314
  8
Layer_0
  10
226.33902
  20
159.99939
  0
VERTEX
  5
315
  8
Layer_0
  10
226.0499
  20
158.49171
  0
VERTEX
  5
316
  8
Layer_0
  10
225.91702
  20
157.84839
  0
VERTEX
  5
317
  8
Layer_0
  10
225.78658
  20
157.27597
  0
VERTEX
  5
318
  8
Layer_0
  10
225.65607
  20
156.77052
  0
VERTEX
  5
319
  8
Layer_0
  10
225.52296
  20
156.32813
  0
VERTEX
  5
31a
  8
Layer_0
  10
225.38475
  20
155.94482
  0
VERTEX
  5
31b
  8
Layer_0
  10
225.23891
  20
155.6167
  0
VERTEX
  5
31c
  8
Layer_0
  10
225.0829
  20
155.33981
  0
VERTEX
  5
31d
  8
Layer_0
  10
224.91422
  20
155.11024
  0
VERTEX
  5
31e
  8
Layer_0
  10
224.73035
  20
154.92404
  0
VERTEX
  5
31f
  8
Layer_0
  10
224.52875
  20
154.77728
  0
VERTEX
  5
320
  8
Layer_0
  10
224.30692
  20
154.66603
  0
VERTEX
  5
321
  8
Layer_0
  10
224.06232
  20
154.58633
  0
VERTEX
  5
322
  8
Layer_0
  10
223.79243
  20
154.5343
  0
VERTEX
  5
323
  8
Layer_0
  10
223.49472
  20
154.50595
  0
VERTEX
  5
324
  8
Layer_0
  10
223.1667
  20
154.49738
  0
VERTEX
  5
325
  8
Layer_0
  10
222.93111
  20
154.4846
  0
VERTEX
  5
326
  8
Layer_0
  10
222.67093
  20
154.44757
  0
VERTEX
  5
327
  8
Layer_0
  10
222.39262
  20
154.38823
  0
VERTEX
  5
328
  8
Layer_0
  10
222.10263
  20
154.30855
  0
VERTEX
  5
329
  8
Layer_0
  10
221.51334
  20
154.09601
  0
VERTEX
  5
32a
  8
Layer_0
  10
220.95456
  20
153.82556
  0
VERTEX
  5
32b
  8
Layer_0
  10
220.2659
  20
153.48694
  0
VERTEX
  5
32c
  8
Layer_0
  10
219.50104
  20
153.19577
  0
VERTEX
  5
32d
  8
Layer_0
  10
218.66656
  20
152.95193
  0
VERTEX
  5
32e
  8
Layer_0
  10
217.76912
  20
152.75537
  0
VERTEX
  5
32f
  8
Layer_0
  10
216.81532
  20
152.60597
  0
VERTEX
  5
330
  8
Layer_0
  10
215.8118
  20
152.50366
  0
VERTEX
  5
331
  8
Layer_0
  10
214.76515
  20
152.44833
  0
VERTEX
  5
332
  8
Layer_0
  10
213.68199
  20
152.43991
  0
VERTEX
  5
333
  8
Layer_0
  10
212.56897
  20
152.4783
  0
VERTEX
  5
334
  8
Layer_0
  10
211.43269
  20
152.56342
  0
VERTEX
  5
335
  8
Layer_0
  10
210.27979
  20
152.69513
  0
VERTEX
  5
336
  8
Layer_0
  10
209.11685
  20
152.87341
  0
VERTEX
  5
337
  8
Layer_0
  10
207.95053
  20
153.09814
  0
VERTEX
  5
338
  8
Layer_0
  10
206.78741
  20
153.36922
  0
VERTEX
  5
339
  8
Layer_0
  10
205.63416
  20
153.68655
  0
VERTEX
  5
33a
  8
Layer_0
  10
204.49733
  20
154.05009
  0
VERTEX
  5
33b
  8
Layer_0
  10
203.14796
  20
154.54854
  0
VERTEX
  5
33c
  8
Layer_0
  10
201.8644
  20
155.09634
  0
VERTEX
  5
33d
  8
Layer_0
  10
200.63931
  20
155.69791
  0
VERTEX
  5
33e
  8
Layer_0
  10
199.46539
  20
156.35757
  0
VERTEX
  5
33f
  8
Layer_0
  10
198.33531
  20
157.07977
  0
VERTEX
  5
340
  8
Layer_0
  10
197.24176
  20
157.86887
  0
VERTEX
  5
341
  8
Layer_0
  10
196.17741
  20
158.72925
  0
VERTEX
  5
342
  8
Layer_0
  10
195.13496
  20
159.66531
  0
VERTEX
  5
343
  8
Layer_0
  10
194.77737
  20
160.00226
  0
VERTEX
  5
344
  8
Layer_0
  10
194.46451
  20
160.29376
  0
VERTEX
  5
345
  8
Layer_0
  10
194.19298
  20
160.53918
  0
VERTEX
  5
346
  8
Layer_0
  10
193.9594
  20
160.73793
  0
VERTEX
  5
347
  8
Layer_0
  10
193.76038
  20
160.88937
  0
VERTEX
  5
348
  8
Layer_0
  10
193.59256
  20
160.99292
  0
VERTEX
  5
349
  8
Layer_0
  10
193.45255
  20
161.04796
  0
VERTEX
  5
34a
  8
Layer_0
  10
193.33693
  20
161.05386
  0
VERTEX
  5
34b
  8
Layer_0
  10
193.24236
  20
161.01004
  0
VERTEX
  5
34c
  8
Layer_0
  10
193.16544
  20
160.91586
  0
VERTEX
  5
34d
  8
Layer_0
  10
193.10278
  20
160.77072
  0
VERTEX
  5
34e
  8
Layer_0
  10
193.05103
  20
160.57401
  0
VERTEX
  5
34f
  8
Layer_0
  10
193.00677
  20
160.3251
  0
VERTEX
  5
350
  8
Layer_0
  10
192.96661
  20
160.02344
  0
VERTEX
  5
351
  8
Layer_0
  10
192.92722
  20
159.66837
  0
VERTEX
  5
352
  8
Layer_0
  10
192.84462
  20
158.8725
  0
VERTEX
  5
353
  8
Layer_0
  10
192.21039
  20
153.17462
  0
VERTEX
  5
354
  8
Layer_0
  10
192.09883
  20
152.16364
  0
VERTEX
  5
355
  8
Layer_0
  10
191.98352
  20
151.0639
  0
VERTEX
  5
356
  8
Layer_0
  10
191.86777
  20
149.91071
  0
VERTEX
  5
357
  8
Layer_0
  10
191.7549
  20
148.73927
  0
VERTEX
  5
358
  8
Layer_0
  10
191.64825
  20
147.5849
  0
VERTEX
  5
359
  8
Layer_0
  10
191.55115
  20
146.48283
  0
VERTEX
  5
35a
  8
Layer_0
  10
191.50723
  20
145.96245
  0
VERTEX
  5
35b
  8
Layer_0
  10
191.43069
  20
145.00499
  0
VERTEX
  5
35c
  8
Layer_0
  10
191.32042
  20
143.52629
  0
VERTEX
  5
35d
  8
Layer_0
  10
191.28166
  20
143.04512
  0
VERTEX
  5
35e
  8
Layer_0
  10
191.24277
  20
142.59224
  0
VERTEX
  5
35f
  8
Layer_0
  10
191.20341
  20
142.16681
  0
VERTEX
  5
360
  8
Layer_0
  10
191.16327
  20
141.76799
  0
VERTEX
  5
361
  8
Layer_0
  10
191.12199
  20
141.39497
  0
VERTEX
  5
362
  8
Layer_0
  10
191.07924
  20
141.04694
  0
VERTEX
  5
363
  8
Layer_0
  10
190.98802
  20
140.42253
  0
VERTEX
  5
364
  8
Layer_0
  10
190.88695
  20
139.88817
  0
VERTEX
  5
365
  8
Layer_0
  10
190.77333
  20
139.43729
  0
VERTEX
  5
366
  8
Layer_0
  10
190.6445
  20
139.06329
  0
VERTEX
  5
367
  8
Layer_0
  10
190.49777
  20
138.75961
  0
VERTEX
  5
368
  8
Layer_0
  10
190.33051
  20
138.51971
  0
VERTEX
  5
369
  8
Layer_0
  10
190.14
  20
138.33694
  0
VERTEX
  5
36a
  8
Layer_0
  10
189.92357
  20
138.20479
  0
VERTEX
  5
36b
  8
Layer_0
  10
189.67856
  20
138.11662
  0
VERTEX
  5
36c
  8
Layer_0
  10
189.40228
  20
138.06589
  0
VERTEX
  5
36d
  8
Layer_0
  10
189.09207
  20
138.04602
  0
VERTEX
  5
36e
  8
Layer_0
  10
188.74524
  20
138.05042
  0
VERTEX
  5
36f
  8
Layer_0
  10
188.18301
  20
138.10982
  0
VERTEX
  5
370
  8
Layer_0
  10
187.60449
  20
138.24342
  0
VERTEX
  5
371
  8
Layer_0
  10
187.0134
  20
138.44928
  0
VERTEX
  5
372
  8
Layer_0
  10
186.41351
  20
138.72551
  0
VERTEX
  5
373
  8
Layer_0
  10
185.80853
  20
139.07016
  0
VERTEX
  5
374
  8
Layer_0
  10
185.20222
  20
139.48126
  0
VERTEX
  5
375
  8
Layer_0
  10
184.59831
  20
139.95694
  0
VERTEX
  5
376
  8
Layer_0
  10
184.00053
  20
140.49527
  0
VERTEX
  5
377
  8
Layer_0
  10
183.72531
  20
140.75716
  0
VERTEX
  5
378
  8
Layer_0
  10
183.46451
  20
141.00146
  0
VERTEX
  5
379
  8
Layer_0
  10
183.22414
  20
141.22285
  0
VERTEX
  5
37a
  8
Layer_0
  10
183.01019
  20
141.41599
  0
VERTEX
  5
37b
  8
Layer_0
  10
182.82867
  20
141.57552
  0
VERTEX
  5
37c
  8
Layer_0
  10
182.68555
  20
141.69608
  0
VERTEX
  5
37d
  8
Layer_0
  10
182.58685
  20
141.77234
  0
VERTEX
  5
37e
  8
Layer_0
  10
182.53854
  20
141.79895
  0
VERTEX
  5
37f
  8
Layer_0
  10
182.49873
  20
141.7625
  0
VERTEX
  5
380
  8
Layer_0
  10
182.42435
  20
141.65804
  0
VERTEX
  5
381
  8
Layer_0
  10
182.31967
  20
141.49289
  0
VERTEX
  5
382
  8
Layer_0
  10
182.18903
  20
141.27438
  0
VERTEX
  5
383
  8
Layer_0
  10
182.03668
  20
141.00984
  0
VERTEX
  5
384
  8
Layer_0
  10
181.86694
  20
140.70657
  0
VERTEX
  5
385
  8
Layer_0
  10
181.68408
  20
140.37195
  0
VERTEX
  5
386
  8
Layer_0
  10
181.49239
  20
140.01324
  0
VERTEX
  5
387
  8
Layer_0
  10
180.96629
  20
139.08759
  0
VERTEX
  5
388
  8
Layer_0
  10
180.37566
  20
138.17661
  0
VERTEX
  5
389
  8
Layer_0
  10
179.72404
  20
137.28319
  0
VERTEX
  5
38a
  8
Layer_0
  10
179.01503
  20
136.4102
  0
VERTEX
  5
38b
  8
Layer_0
  10
178.25218
  20
135.56053
  0
VERTEX
  5
38c
  8
Layer_0
  10
177.43906
  20
134.73708
  0
VERTEX
  5
38d
  8
Layer_0
  10
176.57922
  20
133.9427
  0
VERTEX
  5
38e
  8
Layer_0
  10
175.67627
  20
133.1803
  0
VERTEX
  5
38f
  8
Layer_0
  10
174.73376
  20
132.45273
  0
VERTEX
  5
390
  8
Layer_0
  10
173.75525
  20
131.76289
  0
VERTEX
  5
391
  8
Layer_0
  10
172.74429
  20
131.11366
  0
VERTEX
  5
392
  8
Layer_0
  10
171.7045
  20
130.50792
  0
VERTEX
  5
393
  8
Layer_0
  10
170.6394
  20
129.94855
  0
VERTEX
  5
394
  8
Layer_0
  10
169.55258
  20
129.43842
  0
VERTEX
  5
395
  8
Layer_0
  10
168.44762
  20
128.98042
  0
VERTEX
  5
396
  8
Layer_0
  10
167.32803
  20
128.57742
  0
VERTEX
  5
397
  8
Layer_0
  10
166.6264
  20
128.36638
  0
VERTEX
  5
398
  8
Layer_0
  10
165.89761
  20
128.18997
  0
VERTEX
  5
399
  8
Layer_0
  10
165.14587
  20
128.04797
  0
VERTEX
  5
39a
  8
Layer_0
  10
164.37544
  20
127.94017
  0
VERTEX
  5
39b
  8
Layer_0
  10
163.59055
  20
127.86633
  0
VERTEX
  5
39c
  8
Layer_0
  10
162.79543
  20
127.82623
  0
VERTEX
  5
39d
  8
Layer_0
  10
161.99432
  20
127.81963
  0
VERTEX
  5
39e
  8
Layer_0
  10
161.19147
  20
127.8463
  0
VERTEX
  5
39f
  8
Layer_0
  10
160.39108
  20
127.90602
  0
VERTEX
  5
3a0
  8
Layer_0
  10
159.59743
  20
127.99856
  0
VERTEX
  5
3a1
  8
Layer_0
  10
158.81473
  20
128.12369
  0
VERTEX
  5
3a2
  8
Layer_0
  10
158.04723
  20
128.28117
  0
VERTEX
  5
3a3
  8
Layer_0
  10
157.29915
  20
128.47079
  0
VERTEX
  5
3a4
  8
Layer_0
  10
156.57474
  20
128.69232
  0
VERTEX
  5
3a5
  8
Layer_0
  10
155.87822
  20
128.94554
  0
VERTEX
  5
3a6
  8
Layer_0
  10
155.21384
  20
129.23019
  0
VERTEX
  5
3a7
  8
Layer_0
  10
154.70374
  20
129.46521
  0
VERTEX
  5
3a8
  8
Layer_0
  10
154.49783
  20
129.55356
  0
VERTEX
  5
3a9
  8
Layer_0
  10
154.32095
  20
129.61972
  0
VERTEX
  5
3aa
  8
Layer_0
  10
154.17026
  20
129.66171
  0
VERTEX
  5
3ab
  8
Layer_0
  10
154.04298
  20
129.67743
  0
VERTEX
  5
3ac
  8
Layer_0
  10
153.93628
  20
129.66487
  0
VERTEX
  5
3ad
  8
Layer_0
  10
153.84732
  20
129.62201
  0
VERTEX
  5
3ae
  8
Layer_0
  10
153.77332
  20
129.54678
  0
VERTEX
  5
3af
  8
Layer_0
  10
153.71146
  20
129.43716
  0
VERTEX
  5
3b0
  8
Layer_0
  10
153.65894
  20
129.29112
  0
VERTEX
  5
3b1
  8
Layer_0
  10
153.6129
  20
129.1066
  0
VERTEX
  5
3b2
  8
Layer_0
  10
153.57059
  20
128.88156
  0
VERTEX
  5
3b3
  8
Layer_0
  10
153.52914
  20
128.61397
  0
VERTEX
  5
3b4
  8
Layer_0
  10
153.43768
  20
127.94299
  0
VERTEX
  5
3b5
  8
Layer_0
  10
153.38672
  20
127.62991
  0
VERTEX
  5
3b6
  8
Layer_0
  10
153.3206
  20
127.33678
  0
VERTEX
  5
3b7
  8
Layer_0
  10
153.23927
  20
127.0635
  0
VERTEX
  5
3b8
  8
Layer_0
  10
153.1427
  20
126.81
  0
VERTEX
  5
3b9
  8
Layer_0
  10
152.90369
  20
126.36195
  0
VERTEX
  5
3ba
  8
Layer_0
  10
152.60324
  20
125.99192
  0
VERTEX
  5
3bb
  8
Layer_0
  10
152.40092
  20
125.79943
  0
VERTEX
  5
3bc
  8
Layer_0
  10
152.2168
  20
125.6513
  0
VERTEX
  5
3bd
  8
Layer_0
  10
152.03758
  20
125.54394
  0
VERTEX
  5
3be
  8
Layer_0
  10
151.85002
  20
125.47379
  0
VERTEX
  5
3bf
  8
Layer_0
  10
151.64084
  20
125.43729
  0
VERTEX
  5
3c0
  8
Layer_0
  10
151.39676
  20
125.43086
  0
VERTEX
  5
3c1
  8
Layer_0
  10
151.10449
  20
125.45094
  0
VERTEX
  5
3c2
  8
Layer_0
  10
150.75079
  20
125.49397
  0
VERTEX
  5
3c3
  8
Layer_0
  10
150.31631
  20
125.56886
  0
VERTEX
  5
3c4
  8
Layer_0
  10
149.88336
  20
125.67346
  0
VERTEX
  5
3c5
  8
Layer_0
  10
149.45398
  20
125.80632
  0
VERTEX
  5
3c6
  8
Layer_0
  10
149.03021
  20
125.966
  0
VERTEX
  5
3c7
  8
Layer_0
  10
148.61411
  20
126.15107
  0
VERTEX
  5
3c8
  8
Layer_0
  10
148.2077
  20
126.36006
  0
VERTEX
  5
3c9
  8
Layer_0
  10
147.8131
  20
126.59155
  0
VERTEX
  5
3ca
  8
Layer_0
  10
147.43228
  20
126.8441
  0
VERTEX
  5
3cb
  8
Layer_0
  10
147.06735
  20
127.11626
  0
VERTEX
  5
3cc
  8
Layer_0
  10
146.72031
  20
127.40659
  0
VERTEX
  5
3cd
  8
Layer_0
  10
146.39323
  20
127.71363
  0
VERTEX
  5
3ce
  8
Layer_0
  10
146.08818
  20
128.03596
  0
VERTEX
  5
3cf
  8
Layer_0
  10
145.80719
  20
128.37215
  0
VERTEX
  5
3d0
  8
Layer_0
  10
145.55231
  20
128.72073
  0
VERTEX
  5
3d1
  8
Layer_0
  10
145.32558
  20
129.08026
  0
VERTEX
  5
3d2
  8
Layer_0
  10
145.12906
  20
129.44933
  0
VERTEX
  5
3d3
  8
Layer_0
  10
144.93796
  20
129.89114
  0
VERTEX
  5
3d4
  8
Layer_0
  10
144.78349
  20
130.36206
  0
VERTEX
  5
3d5
  8
Layer_0
  10
144.66727
  20
130.87471
  0
VERTEX
  5
3d6
  8
Layer_0
  10
144.59088
  20
131.44174
  0
VERTEX
  5
3d7
  8
Layer_0
  10
144.55592
  20
132.07579
  0
VERTEX
  5
3d8
  8
Layer_0
  10
144.56401
  20
132.78952
  0
VERTEX
  5
3d9
  8
Layer_0
  10
144.5847
  20
133.18021
  0
VERTEX
  5
3da
  8
Layer_0
  10
144.61674
  20
133.59555
  0
VERTEX
  5
3db
  8
Layer_0
  10
144.66034
  20
134.03714
  0
VERTEX
  5
3dc
  8
Layer_0
  10
144.71573
  20
134.50656
  0
VERTEX
  5
3dd
  8
Layer_0
  10
144.78307
  20
135.00537
  0
VERTEX
  5
3de
  8
Layer_0
  10
144.86255
  20
135.53516
  0
VERTEX
  5
3df
  8
Layer_0
  10
144.95439
  20
136.0975
  0
VERTEX
  5
3e0
  8
Layer_0
  10
145.05881
  20
136.69398
  0
VERTEX
  5
3e1
  8
Layer_0
  10
145.17599
  20
137.32617
  0
VERTEX
  5
3e2
  8
Layer_0
  10
145.30614
  20
137.9957
  0
VERTEX
  5
3e3
  8
Layer_0
  10
145.44943
  20
138.70409
  0
VERTEX
  5
3e4
  8
Layer_0
  10
145.60611
  20
139.45294
  0
VERTEX
  5
3e5
  8
Layer_0
  10
145.77634
  20
140.24384
  0
VERTEX
  5
3e6
  8
Layer_0
  10
145.96034
  20
141.07834
  0
VERTEX
  5
3e7
  8
Layer_0
  10
146.15829
  20
141.95805
  0
VERTEX
  5
3e8
  8
Layer_0
  10
146.37044
  20
142.88455
  0
VERTEX
  5
3e9
  8
Layer_0
  10
146.59694
  20
143.85941
  0
VERTEX
  5
3ea
  8
Layer_0
  10
146.838
  20
144.88422
  0
VERTEX
  5
3eb
  8
Layer_0
  10
147.09383
  20
145.96054
  0
VERTEX
  5
3ec
  8
Layer_0
  10
147.36461
  20
147.08997
  0
VERTEX
  5
3ed
  8
Layer_0
  10
148.22513
  20
150.69849
  0
VERTEX
  5
3ee
  8
Layer_0
  10
149.05739
  20
154.24973
  0
VERTEX
  5
3ef
  8
Layer_0
  10
149.45395
  20
155.9637
  0
VERTEX
  5
3f0
  8
Layer_0
  10
149.83269
  20
157.61514
  0
VERTEX
  5
3f1
  8
Layer_0
  10
150.18999
  20
159.18797
  0
VERTEX
  5
3f2
  8
Layer_0
  10
150.52226
  20
160.66614
  0
VERTEX
  5
3f3
  8
Layer_0
  10
150.82593
  20
162.03355
  0
VERTEX
  5
3f4
  8
Layer_0
  10
151.0974
  20
163.27415
  0
VERTEX
  5
3f5
  8
Layer_0
  10
151.33308
  20
164.37186
  0
VERTEX
  5
3f6
  8
Layer_0
  10
151.52937
  20
165.31062
  0
VERTEX
  5
3f7
  8
Layer_0
  10
151.68268
  20
166.07436
  0
VERTEX
  5
3f8
  8
Layer_0
  10
151.7421
  20
166.38556
  0
VERTEX
  5
3f9
  8
Layer_0
  10
151.78943
  20
166.64697
  0
VERTEX
  5
3fa
  8
Layer_0
  10
151.82422
  20
166.8566
  0
VERTEX
  5
3fb
  8
Layer_0
  10
151.84602
  20
167.01245
  0
VERTEX
  5
3fc
  8
Layer_0
  10
151.85437
  20
167.11246
  0
VERTEX
  5
3fd
  8
Layer_0
  10
151.84886
  20
167.15466
  0
VERTEX
  5
3fe
  8
Layer_0
  10
151.81451
  20
167.15887
  0
VERTEX
  5
3ff
  8
Layer_0
  10
151.75302
  20
167.13211
  0
VERTEX
  5
400
  8
Layer_0
  10
151.66603
  20
167.07605
  0
VERTEX
  5
401
  8
Layer_0
  10
151.55518
  20
166.99237
  0
VERTEX
  5
402
  8
Layer_0
  10
151.42203
  20
166.88278
  0
VERTEX
  5
403
  8
Layer_0
  10
151.26825
  20
166.74898
  0
VERTEX
  5
404
  8
Layer_0
  10
151.0954
  20
166.59262
  0
VERTEX
  5
405
  8
Layer_0
  10
150.90509
  20
166.41544
  0
VERTEX
  5
406
  8
Layer_0
  10
150.47865
  20
166.00522
  0
VERTEX
  5
407
  8
Layer_0
  10
150.0018
  20
165.53186
  0
VERTEX
  5
408
  8
Layer_0
  10
149.48744
  20
165.00885
  0
VERTEX
  5
409
  8
Layer_0
  10
148.94849
  20
164.44969
  0
VERTEX
  5
40a
  8
Layer_0
  10
147.84833
  20
163.27701
  0
VERTEX
  5
40b
  8
Layer_0
  10
146.80453
  20
162.12184
  0
VERTEX
  5
40c
  8
Layer_0
  10
146.33601
  20
161.58459
  0
VERTEX
  5
40d
  8
Layer_0
  10
145.92029
  20
161.09225
  0
VERTEX
  5
40e
  8
Layer_0
  10
145.73624
  20
160.86713
  0
VERTEX
  5
40f
  8
Layer_0
  10
145.57022
  20
160.65829
  0
VERTEX
  5
410
  8
Layer_0
  10
145.42386
  20
160.46744
  0
VERTEX
  5
411
  8
Layer_0
  10
145.29877
  20
160.29625
  0
VERTEX
  5
412
  8
Layer_0
  10
144.06525
  20
158.55545
  0
VERTEX
  5
413
  8
Layer_0
  10
143.27386
  20
153.41794
  0
VERTEX
  5
414
  8
Layer_0
  10
142.81757
  20
150.37251
  0
VERTEX
  5
415
  8
Layer_0
  10
142.39966
  20
147.39749
  0
VERTEX
  5
416
  8
Layer_0
  10
142.01157
  20
144.41833
  0
VERTEX
  5
417
  8
Layer_0
  10
141.64474
  20
141.36053
  0
VERTEX
  5
418
  8
Layer_0
  10
141.46661
  20
139.77884
  0
VERTEX
  5
419
  8
Layer_0
  10
141.2906
  20
138.14951
  0
VERTEX
  5
41a
  8
Layer_0
  10
141.11562
  20
136.46326
  0
VERTEX
  5
41b
  8
Layer_0
  10
140.94058
  20
134.71075
  0
VERTEX
  5
41c
  8
Layer_0
  10
140.76443
  20
132.88266
  0
VERTEX
  5
41d
  8
Layer_0
  10
140.58611
  20
130.9697
  0
VERTEX
  5
41e
  8
Layer_0
  10
140.40451
  20
128.96255
  0
VERTEX
  5
41f
  8
Layer_0
  10
139.9321
  20
123.60293
  0
VERTEX
  5
420
  8
Layer_0
  10
139.66663
  20
120.67421
  0
VERTEX
  5
421
  8
Layer_0
  10
139.43729
  20
118.22588
  0
VERTEX
  5
422
  8
Layer_0
  10
139.31195
  20
116.93964
  0
VERTEX
  5
423
  8
Layer_0
  10
139.21387
  20
115.98554
  0
VERTEX
  5
424
  8
Layer_0
  10
139.17645
  20
115.64789
  0
VERTEX
  5
425
  8
Layer_0
  10
139.14751
  20
115.41107
  0
VERTEX
  5
426
  8
Layer_0
  10
139.12762
  20
115.28101
  0
VERTEX
  5
427
  8
Layer_0
  10
139.01469
  20
114.95565
  0
VERTEX
  5
428
  8
Layer_0
  10
138.81598
  20
114.60516
  0
VERTEX
  5
429
  8
Layer_0
  10
138.55952
  20
114.27168
  0
VERTEX
  5
42a
  8
Layer_0
  10
138.27332
  20
113.99733
  0
VERTEX
  5
42b
  8
Layer_0
  10
137.91191
  20
113.77382
  0
VERTEX
  5
42c
  8
Layer_0
  10
137.48854
  20
113.62735
  0
VERTEX
  5
42d
  8
Layer_0
  10
137.25288
  20
113.58307
  0
VERTEX
  5
42e
  8
Layer_0
  10
137.00085
  20
113.55812
  0
VERTEX
  5
42f
  8
Layer_0
  10
136.73215
  20
113.55253
  0
VERTEX
  5
430
  8
Layer_0
  10
136.44649
  20
113.56631
  0
VERTEX
  5
431
  8
Layer_0
  10
136.14359
  20
113.59949
  0
VERTEX
  5
432
  8
Layer_0
  10
135.82312
  20
113.6521
  0
VERTEX
  5
433
  8
Layer_0
  10
135.48483
  20
113.72415
  0
VERTEX
  5
434
  8
Layer_0
  10
135.12842
  20
113.81569
  0
VERTEX
  5
435
  8
Layer_0
  10
134.7536
  20
113.92672
  0
VERTEX
  5
436
  8
Layer_0
  10
134.36005
  20
114.05727
  0
VERTEX
  5
437
  8
Layer_0
  10
133.94748
  20
114.20735
  0
VERTEX
  5
438
  8
Layer_0
  10
133.51561
  20
114.377
  0
VERTEX
  5
439
  8
Layer_0
  10
131.90659
  20
115.03081
  0
VERTEX
  5
43a
  8
Layer_0
  10
127.48846
  20
112.09032
  0
VERTEX
  5
43b
  8
Layer_0
  10
126.88309
  20
111.68425
  0
VERTEX
  5
43c
  8
Layer_0
  10
126.31381
  20
111.29935
  0
VERTEX
  5
43d
  8
Layer_0
  10
125.77155
  20
110.92904
  0
VERTEX
  5
43e
  8
Layer_0
  10
124.73158
  20
110.20575
  0
VERTEX
  5
43f
  8
Layer_0
  10
123.69027
  20
109.46157
  0
VERTEX
  5
440
  8
Layer_0
  10
123.14633
  20
109.06516
  0
VERTEX
  5
441
  8
Layer_0
  10
122.57472
  20
108.64374
  0
VERTEX
  5
442
  8
Layer_0
  10
121.96634
  20
108.1907
  0
VERTEX
  5
443
  8
Layer_0
  10
121.31207
  20
107.69944
  0
VERTEX
  5
444
  8
Layer_0
  10
120.60278
  20
107.16338
  0
VERTEX
  5
445
  8
Layer_0
  10
119.82939
  20
106.5759
  0
VERTEX
  5
446
  8
Layer_0
  10
118.05382
  20
105.22034
  0
VERTEX
  5
447
  8
Layer_0
  10
117.54196
  20
104.83295
  0
VERTEX
  5
448
  8
Layer_0
  10
117.04678
  20
104.46672
  0
VERTEX
  5
449
  8
Layer_0
  10
116.56916
  20
104.12218
  0
VERTEX
  5
44a
  8
Layer_0
  10
116.10999
  20
103.79984
  0
VERTEX
  5
44b
  8
Layer_0
  10
115.67015
  20
103.50023
  0
VERTEX
  5
44c
  8
Layer_0
  10
115.25053
  20
103.22388
  0
VERTEX
  5
44d
  8
Layer_0
  10
114.85203
  20
102.9713
  0
VERTEX
  5
44e
  8
Layer_0
  10
114.47551
  20
102.74303
  0
VERTEX
  5
44f
  8
Layer_0
  10
114.12186
  20
102.53957
  0
VERTEX
  5
450
  8
Layer_0
  10
113.79197
  20
102.36146
  0
VERTEX
  5
451
  8
Layer_0
  10
113.48672
  20
102.20921
  0
VERTEX
  5
452
  8
Layer_0
  10
113.207
  20
102.08336
  0
VERTEX
  5
453
  8
Layer_0
  10
112.9537
  20
101.98443
  0
VERTEX
  5
454
  8
Layer_0
  10
112.72769
  20
101.91293
  0
VERTEX
  5
455
  8
Layer_0
  10
112.52986
  20
101.8694
  0
VERTEX
  5
456
  8
Layer_0
  10
112.3611
  20
101.85434
  0
VERTEX
  5
457
  8
Layer_0
  10
112.19817
  20
101.86409
  0
VERTEX
  5
458
  8
Layer_0
  10
112.01554
  20
101.89388
  0
VERTEX
  5
459
  8
Layer_0
  10
111.81477
  20
101.94267
  0
VERTEX
  5
45a
  8
Layer_0
  10
111.59738
  20
102.0094
  0
VERTEX
  5
45b
  8
Layer_0
  10
111.11894
  20
102.19244
  0
VERTEX
  5
45c
  8
Layer_0
  10
110.59258
  20
102.43457
  0
VERTEX
  5
45d
  8
Layer_0
  10
110.03061
  20
102.72733
  0
VERTEX
  5
45e
  8
Layer_0
  10
109.44538
  20
103.06229
  0
VERTEX
  5
45f
  8
Layer_0
  10
108.84923
  20
103.43099
  0
VERTEX
  5
460
  8
Layer_0
  10
108.25449
  20
103.825
  0
VERTEX
  5
461
  8
Layer_0
  10
107.67349
  20
104.23588
  0
VERTEX
  5
462
  8
Layer_0
  10
107.11857
  20
104.65516
  0
VERTEX
  5
463
  8
Layer_0
  10
106.60207
  20
105.07441
  0
VERTEX
  5
464
  8
Layer_0
  10
106.13632
  20
105.48519
  0
VERTEX
  5
465
  8
Layer_0
  10
105.73367
  20
105.87906
  0
VERTEX
  5
466
  8
Layer_0
  10
105.40643
  20
106.24755
  0
VERTEX
  5
467
  8
Layer_0
  10
105.27496
  20
106.41965
  0
VERTEX
  5
468
  8
Layer_0
  10
105.16696
  20
106.58224
  0
VERTEX
  5
469
  8
Layer_0
  10
105.08398
  20
106.73427
  0
VERTEX
  5
46a
  8
Layer_0
  10
105.02759
  20
106.87467
  0
VERTEX
  5
46b
  8
Layer_0
  10
105.01738
  20
106.96226
  0
VERTEX
  5
46c
  8
Layer_0
  10
105.01687
  20
107.1265
  0
VERTEX
  5
46d
  8
Layer_0
  10
105.02565
  20
107.3632
  0
VERTEX
  5
46e
  8
Layer_0
  10
105.04333
  20
107.66811
  0
VERTEX
  5
46f
  8
Layer_0
  10
105.06951
  20
108.03703
  0
VERTEX
  5
470
  8
Layer_0
  10
105.10379
  20
108.46571
  0
VERTEX
  5
471
  8
Layer_0
  10
105.14577
  20
108.94995
  0
VERTEX
  5
472
  8
Layer_0
  10
105.19505
  20
109.48552
  0
VERTEX
  5
473
  8
Layer_0
  10
105.25124
  20
110.06819
  0
VERTEX
  5
474
  8
Layer_0
  10
105.31393
  20
110.69374
  0
VERTEX
  5
475
  8
Layer_0
  10
105.38273
  20
111.35796
  0
VERTEX
  5
476
  8
Layer_0
  10
105.45724
  20
112.05661
  0
VERTEX
  5
477
  8
Layer_0
  10
105.62181
  20
113.54033
  0
VERTEX
  5
478
  8
Layer_0
  10
105.80444
  20
115.11113
  0
VERTEX
  5
479
  8
Layer_0
  10
106.02968
  20
117.01606
  0
VERTEX
  5
47a
  8
Layer_0
  10
106.2479
  20
118.88266
  0
VERTEX
  5
47b
  8
Layer_0
  10
106.45914
  20
120.71144
  0
VERTEX
  5
47c
  8
Layer_0
  10
106.66346
  20
122.50288
  0
VERTEX
  5
47d
  8
Layer_0
  10
106.86091
  20
124.25749
  0
VERTEX
  5
47e
  8
Layer_0
  10
107.05154
  20
125.97578
  0
VERTEX
  5
47f
  8
Layer_0
  10
107.2354
  20
127.65823
  0
VERTEX
  5
480
  8
Layer_0
  10
107.41256
  20
129.30533
  0
VERTEX
  5
481
  8
Layer_0
  10
107.58305
  20
130.9176
  0
VERTEX
  5
482
  8
Layer_0
  10
107.74695
  20
132.49553
  0
VERTEX
  5
483
  8
Layer_0
  10
107.90428
  20
134.03961
  0
VERTEX
  5
484
  8
Layer_0
  10
108.05512
  20
135.55035
  0
VERTEX
  5
485
  8
Layer_0
  10
108.19951
  20
137.02824
  0
VERTEX
  5
486
  8
Layer_0
  10
108.33751
  20
138.47379
  0
VERTEX
  5
487
  8
Layer_0
  10
108.46917
  20
139.8875
  0
VERTEX
  5
488
  8
Layer_0
  10
108.68137
  20
142.23021
  0
VERTEX
  5
489
  8
Layer_0
  10
108.85249
  20
144.06032
  0
VERTEX
  5
48a
  8
Layer_0
  10
108.93685
  20
144.93053
  0
VERTEX
  5
48b
  8
Layer_0
  10
109.02048
  20
145.77115
  0
VERTEX
  5
48c
  8
Layer_0
  10
109.10338
  20
146.58241
  0
VERTEX
  5
48d
  8
Layer_0
  10
109.18561
  20
147.36453
  0
VERTEX
  5
48e
  8
Layer_0
  10
109.2672
  20
148.11777
  0
VERTEX
  5
48f
  8
Layer_0
  10
109.34817
  20
148.84233
  0
VERTEX
  5
490
  8
Layer_0
  10
109.42857
  20
149.53845
  0
VERTEX
  5
491
  8
Layer_0
  10
109.50842
  20
150.20634
  0
VERTEX
  5
492
  8
Layer_0
  10
109.58778
  20
150.84627
  0
VERTEX
  5
493
  8
Layer_0
  10
109.66666
  20
151.45844
  0
VERTEX
  5
494
  8
Layer_0
  10
109.74509
  20
152.04309
  0
VERTEX
  5
495
  8
Layer_0
  10
109.82314
  20
152.60043
  0
VERTEX
  5
496
  8
Layer_0
  10
109.9008
  20
153.13072
  0
VERTEX
  5
497
  8
Layer_0
  10
109.97813
  20
153.63419
  0
VERTEX
  5
498
  8
Layer_0
  10
110.05518
  20
154.11102
  0
VERTEX
  5
499
  8
Layer_0
  10
110.13194
  20
154.56149
  0
VERTEX
  5
49a
  8
Layer_0
  10
110.20848
  20
154.98581
  0
VERTEX
  5
49b
  8
Layer_0
  10
110.28482
  20
155.38422
  0
VERTEX
  5
49c
  8
Layer_0
  10
110.36099
  20
155.75693
  0
VERTEX
  5
49d
  8
Layer_0
  10
110.43704
  20
156.10419
  0
VERTEX
  5
49e
  8
Layer_0
  10
110.513
  20
156.42621
  0
VERTEX
  5
49f
  8
Layer_0
  10
110.66476
  20
156.99548
  0
VERTEX
  5
4a0
  8
Layer_0
  10
110.81657
  20
157.46658
  0
VERTEX
  5
4a1
  8
Layer_0
  10
110.96868
  20
157.84137
  0
VERTEX
  5
4a2
  8
Layer_0
  10
111.12138
  20
158.12163
  0
VERTEX
  5
4a3
  8
Layer_0
  10
111.44786
  20
158.53146
  0
VERTEX
  5
4a4
  8
Layer_0
  10
111.87164
  20
158.92828
  0
VERTEX
  5
4a5
  8
Layer_0
  10
112.36921
  20
159.29927
  0
VERTEX
  5
4a6
  8
Layer_0
  10
112.91709
  20
159.63159
  0
VERTEX
  5
4a7
  8
Layer_0
  10
113.49178
  20
159.91241
  0
VERTEX
  5
4a8
  8
Layer_0
  10
114.06978
  20
160.12889
  0
VERTEX
  5
4a9
  8
Layer_0
  10
114.35267
  20
160.209
  0
VERTEX
  5
4aa
  8
Layer_0
  10
114.62757
  20
160.26819
  0
VERTEX
  5
4ab
  8
Layer_0
  10
114.89156
  20
160.30487
  0
VERTEX
  5
4ac
  8
Layer_0
  10
115.14168
  20
160.31747
  0
VERTEX
  5
4ad
  8
Layer_0
  10
115.51801
  20
160.2948
  0
VERTEX
  5
4ae
  8
Layer_0
  10
115.92138
  20
160.2291
  0
VERTEX
  5
4af
  8
Layer_0
  10
116.34598
  20
160.12384
  0
VERTEX
  5
4b0
  8
Layer_0
  10
116.786
  20
159.98248
  0
VERTEX
  5
4b1
  8
Layer_0
  10
117.23563
  20
159.8085
  0
VERTEX
  5
4b2
  8
Layer_0
  10
117.68904
  20
159.60535
  0
VERTEX
  5
4b3
  8
Layer_0
  10
118.14043
  20
159.37653
  0
VERTEX
  5
4b4
  8
Layer_0
  10
118.58398
  20
159.12544
  0
VERTEX
  5
4b5
  8
Layer_0
  10
119.01389
  20
158.85561
  0
VERTEX
  5
4b6
  8
Layer_0
  10
119.42432
  20
158.5705
  0
VERTEX
  5
4b7
  8
Layer_0
  10
119.80947
  20
158.27356
  0
VERTEX
  5
4b8
  8
Layer_0
  10
120.16353
  20
157.96826
  0
VERTEX
  5
4b9
  8
Layer_0
  10
120.48067
  20
157.65808
  0
VERTEX
  5
4ba
  8
Layer_0
  10
120.7551
  20
157.34648
  0
VERTEX
  5
4bb
  8
Layer_0
  10
120.98099
  20
157.03691
  0
VERTEX
  5
4bc
  8
Layer_0
  10
121.15253
  20
156.73285
  0
VERTEX
  5
4bd
  8
Layer_0
  10
121.25976
  20
156.48174
  0
VERTEX
  5
4be
  8
Layer_0
  10
121.3469
  20
156.21271
  0
VERTEX
  5
4bf
  8
Layer_0
  10
121.41259
  20
155.91364
  0
VERTEX
  5
4c0
  8
Layer_0
  10
121.45545
  20
155.57242
  0
VERTEX
  5
4c1
  8
Layer_0
  10
121.47414
  20
155.17696
  0
VERTEX
  5
4c2
  8
Layer_0
  10
121.46727
  20
154.71512
  0
VERTEX
  5
4c3
  8
Layer_0
  10
121.43349
  20
154.1748
  0
VERTEX
  5
4c4
  8
Layer_0
  10
121.37144
  20
153.54395
  0
VERTEX
  5
4c5
  8
Layer_0
  10
121.32938
  20
153.19075
  0
VERTEX
  5
4c6
  8
Layer_0
  10
121.27975
  20
152.81039
  0
VERTEX
  5
4c7
  8
Layer_0
  10
121.22236
  20
152.40131
  0
VERTEX
  5
4c8
  8
Layer_0
  10
121.15705
  20
151.96204
  0
VERTEX
  5
4c9
  8
Layer_0
  10
121.08365
  20
151.49101
  0
VERTEX
  5
4ca
  8
Layer_0
  10
121.00198
  20
150.98677
  0
VERTEX
  5
4cb
  8
Layer_0
  10
120.91188
  20
150.44777
  0
VERTEX
  5
4cc
  8
Layer_0
  10
120.81318
  20
149.87248
  0
VERTEX
  5
4cd
  8
Layer_0
  10
120.7057
  20
149.25941
  0
VERTEX
  5
4ce
  8
Layer_0
  10
120.46375
  20
147.91394
  0
VERTEX
  5
4cf
  8
Layer_0
  10
120.18464
  20
146.39915
  0
VERTEX
  5
4d0
  8
Layer_0
  10
119.47432
  20
142.61694
  0
VERTEX
  5
4d1
  8
Layer_0
  10
119.25121
  20
141.41261
  0
VERTEX
  5
4d2
  8
Layer_0
  10
119.02478
  20
140.17497
  0
VERTEX
  5
4d3
  8
Layer_0
  10
118.79581
  20
138.90887
  0
VERTEX
  5
4d4
  8
Layer_0
  10
118.33344
  20
136.31084
  0
VERTEX
  5
4d5
  8
Layer_0
  10
117.87033
  20
133.6575
  0
VERTEX
  5
4d6
  8
Layer_0
  10
117.41277
  20
130.98785
  0
VERTEX
  5
4d7
  8
Layer_0
  10
116.96701
  20
128.3409
  0
VERTEX
  5
4d8
  8
Layer_0
  10
116.53934
  20
125.75562
  0
VERTEX
  5
4d9
  8
Layer_0
  10
116.136
  20
123.271
  0
VERTEX
  5
4da
  8
Layer_0
  10
115.94542
  20
122.07863
  0
VERTEX
  5
4db
  8
Layer_0
  10
115.76327
  20
120.92604
  0
VERTEX
  5
4dc
  8
Layer_0
  10
115.59033
  20
119.81812
  0
VERTEX
  5
4dd
  8
Layer_0
  10
115.42741
  20
118.75974
  0
VERTEX
  5
4de
  8
Layer_0
  10
115.27527
  20
117.75576
  0
VERTEX
  5
4df
  8
Layer_0
  10
115.1347
  20
116.81107
  0
VERTEX
  5
4e0
  8
Layer_0
  10
115.00648
  20
115.93053
  0
VERTEX
  5
4e1
  8
Layer_0
  10
114.89138
  20
115.11904
  0
VERTEX
  5
4e2
  8
Layer_0
  10
114.7902
  20
114.38145
  0
VERTEX
  5
4e3
  8
Layer_0
  10
114.70373
  20
113.72264
  0
VERTEX
  5
4e4
  8
Layer_0
  10
114.63274
  20
113.14748
  0
VERTEX
  5
4e5
  8
Layer_0
  10
114.57801
  20
112.66086
  0
VERTEX
  5
4e6
  8
Layer_0
  10
114.54033
  20
112.26763
  0
VERTEX
  5
4e7
  8
Layer_0
  10
114.52049
  20
111.97269
  0
VERTEX
  5
4e8
  8
Layer_0
  10
114.5175
  20
111.86359
  0
VERTEX
  5
4e9
  8
Layer_0
  10
114.51927
  20
111.78088
  0
VERTEX
  5
4ea
  8
Layer_0
  10
114.52588
  20
111.72519
  0
VERTEX
  5
4eb
  8
Layer_0
  10
114.53745
  20
111.69711
  0
VERTEX
  5
4ec
  8
Layer_0
  10
114.57212
  20
111.70294
  0
VERTEX
  5
4ed
  8
Layer_0
  10
114.65637
  20
111.73753
  0
VERTEX
  5
4ee
  8
Layer_0
  10
114.78763
  20
111.79948
  0
VERTEX
  5
4ef
  8
Layer_0
  10
114.96327
  20
111.88736
  0
VERTEX
  5
4f0
  8
Layer_0
  10
115.18073
  20
111.99976
  0
VERTEX
  5
4f1
  8
Layer_0
  10
115.43742
  20
112.13528
  0
VERTEX
  5
4f2
  8
Layer_0
  10
116.05807
  20
112.47
  0
VERTEX
  5
4f3
  8
Layer_0
  10
116.80452
  20
112.88023
  0
VERTEX
  5
4f4
  8
Layer_0
  10
117.65601
  20
113.35468
  0
VERTEX
  5
4f5
  8
Layer_0
  10
118.59184
  20
113.88203
  0
VERTEX
  5
4f6
  8
Layer_0
  10
120.51192
  20
114.97459
  0
VERTEX
  5
4f7
  8
Layer_0
  10
121.37684
  20
115.45995
  0
VERTEX
  5
4f8
  8
Layer_0
  10
122.18732
  20
115.9077
  0
VERTEX
  5
4f9
  8
Layer_0
  10
122.94466
  20
116.31844
  0
VERTEX
  5
4fa
  8
Layer_0
  10
123.65017
  20
116.69279
  0
VERTEX
  5
4fb
  8
Layer_0
  10
124.30516
  20
117.03137
  0
VERTEX
  5
4fc
  8
Layer_0
  10
124.91093
  20
117.33479
  0
VERTEX
  5
4fd
  8
Layer_0
  10
125.46877
  20
117.60367
  0
VERTEX
  5
4fe
  8
Layer_0
  10
125.97998
  20
117.83861
  0
VERTEX
  5
4ff
  8
Layer_0
  10
126.44589
  20
118.04022
  0
VERTEX
  5
500
  8
Layer_0
  10
126.86779
  20
118.20914
  0
VERTEX
  5
501
  8
Layer_0
  10
127.24698
  20
118.34597
  0
VERTEX
  5
502
  8
Layer_0
  10
127.58476
  20
118.45132
  0
VERTEX
  5
503
  8
Layer_0
  10
127.88243
  20
118.52581
  0
VERTEX
  5
504
  8
Layer_0
  10
128.14131
  20
118.57005
  0
VERTEX
  5
505
  8
Layer_0
  10
128.3627
  20
118.58467
  0
VERTEX
  5
506
  8
Layer_0
  10
128.59787
  20
118.59772
  0
VERTEX
  5
507
  8
Layer_0
  10
128.79059
  20
118.63324
  0
VERTEX
  5
508
  8
Layer_0
  10
128.92091
  20
118.68581
  0
VERTEX
  5
509
  8
Layer_0
  10
128.96899
  20
118.75002
  0
VERTEX
  5
50a
  8
Layer_0
  10
129.29881
  20
121.33986
  0
VERTEX
  5
50b
  8
Layer_0
  10
131.78348
  20
140.21608
  0
VERTEX
  5
50c
  8
Layer_0
  10
133.20767
  20
151.15268
  0
VERTEX
  5
50d
  8
Layer_0
  10
133.47075
  20
153.1433
  0
VERTEX
  5
50e
  8
Layer_0
  10
133.72614
  20
155.02957
  0
VERTEX
  5
50f
  8
Layer_0
  10
133.9733
  20
156.80835
  0
VERTEX
  5
510
  8
Layer_0
  10
134.21176
  20
158.47639
  0
VERTEX
  5
511
  8
Layer_0
  10
134.44095
  20
160.03052
  0
VERTEX
  5
512
  8
Layer_0
  10
134.66034
  20
161.46759
  0
VERTEX
  5
513
  8
Layer_0
  10
134.7662
  20
162.14124
  0
VERTEX
  5
514
  8
Layer_0
  10
134.86942
  20
162.78441
  0
VERTEX
  5
515
  8
Layer_0
  10
134.96994
  20
163.39674
  0
VERTEX
  5
516
  8
Layer_0
  10
135.06767
  20
163.97781
  0
VERTEX
  5
517
  8
Layer_0
  10
135.16255
  20
164.52725
  0
VERTEX
  5
518
  8
Layer_0
  10
135.25453
  20
165.04462
  0
VERTEX
  5
519
  8
Layer_0
  10
135.34354
  20
165.52956
  0
VERTEX
  5
51a
  8
Layer_0
  10
135.4295
  20
165.98166
  0
VERTEX
  5
51b
  8
Layer_0
  10
135.51236
  20
166.40051
  0
VERTEX
  5
51c
  8
Layer_0
  10
135.59204
  20
166.78572
  0
VERTEX
  5
51d
  8
Layer_0
  10
135.66849
  20
167.1369
  0
VERTEX
  5
51e
  8
Layer_0
  10
135.74162
  20
167.45366
  0
VERTEX
  5
51f
  8
Layer_0
  10
135.8114
  20
167.73558
  0
VERTEX
  5
520
  8
Layer_0
  10
135.87772
  20
167.98227
  0
VERTEX
  5
521
  8
Layer_0
  10
135.94055
  20
168.19334
  0
VERTEX
  5
522
  8
Layer_0
  10
135.99982
  20
168.36841
  0
VERTEX
  5
523
  8
Layer_0
  10
136.05545
  20
168.50705
  0
VERTEX
  5
524
  8
Layer_0
  10
136.10738
  20
168.60886
  0
VERTEX
  5
525
  8
Layer_0
  10
136.15553
  20
168.67348
  0
VERTEX
  5
526
  8
Layer_0
  10
136.25391
  20
168.74879
  0
VERTEX
  5
527
  8
Layer_0
  10
136.40228
  20
168.83212
  0
VERTEX
  5
528
  8
Layer_0
  10
136.59436
  20
168.92168
  0
VERTEX
  5
529
  8
Layer_0
  10
136.82384
  20
169.01567
  0
VERTEX
  5
52a
  8
Layer_0
  10
137.36981
  20
169.2097
  0
VERTEX
  5
52b
  8
Layer_0
  10
137.98976
  20
169.3998
  0
VERTEX
  5
52c
  8
Layer_0
  10
138.63327
  20
169.5715
  0
VERTEX
  5
52d
  8
Layer_0
  10
139.24994
  20
169.71039
  0
VERTEX
  5
52e
  8
Layer_0
  10
139.53244
  20
169.763
  0
VERTEX
  5
52f
  8
Layer_0
  10
139.78934
  20
169.802
  0
VERTEX
  5
530
  8
Layer_0
  10
140.01431
  20
169.82558
  0
VERTEX
  5
531
  8
Layer_0
  10
140.20107
  20
169.83191
  0
VERTEX
  5
532
  8
Layer_0
  10
140.46109
  20
169.80029
  0
VERTEX
  5
533
  8
Layer_0
  10
140.7702
  20
169.72113
  0
VERTEX
  5
534
  8
Layer_0
  10
141.08966
  20
169.60635
  0
VERTEX
  5
535
  8
Layer_0
  10
141.38077
  20
169.46793
  0
VERTEX
  5
536
  8
Layer_0
  10
141.59221
  20
169.3645
  0
VERTEX
  5
537
  8
Layer_0
  10
141.79083
  20
169.31804
  0
VERTEX
  5
538
  8
Layer_0
  10
141.89464
  20
169.32155
  0
VERTEX
  5
539
  8
Layer_0
  10
142.00641
  20
169.34572
  0
VERTEX
  5
53a
  8
Layer_0
  10
142.12988
  20
169.39272
  0
VERTEX
  5
53b
  8
Layer_0
  10
142.26877
  20
169.46469
  0
VERTEX
  5
53c
  8
Layer_0
  10
142.42679
  20
169.56378
  0
VERTEX
  5
53d
  8
Layer_0
  10
142.60765
  20
169.69211
  0
VERTEX
  5
53e
  8
Layer_0
  10
142.81511
  20
169.85187
  0
VERTEX
  5
53f
  8
Layer_0
  10
143.05287
  20
170.04515
  0
VERTEX
  5
540
  8
Layer_0
  10
143.32468
  20
170.27414
  0
VERTEX
  5
541
  8
Layer_0
  10
143.63422
  20
170.54097
  0
VERTEX
  5
542
  8
Layer_0
  10
144.38147
  20
171.19675
  0
VERTEX
  5
543
  8
Layer_0
  10
145.24609
  20
171.94342
  0
VERTEX
  5
544
  8
Layer_0
  10
146.1833
  20
172.72275
  0
VERTEX
  5
545
  8
Layer_0
  10
147.1813
  20
173.52643
  0
VERTEX
  5
546
  8
Layer_0
  10
148.22832
  20
174.34616
  0
VERTEX
  5
547
  8
Layer_0
  10
150.42221
  20
176.00067
  0
VERTEX
  5
548
  8
Layer_0
  10
152.67075
  20
177.6199
  0
VERTEX
  5
549
  8
Layer_0
  10
153.78604
  20
178.39557
  0
VERTEX
  5
54a
  8
Layer_0
  10
154.87964
  20
179.13754
  0
VERTEX
  5
54b
  8
Layer_0
  10
155.93976
  20
179.83752
  0
VERTEX
  5
54c
  8
Layer_0
  10
156.95462
  20
180.48723
  0
VERTEX
  5
54d
  8
Layer_0
  10
157.91245
  20
181.07837
  0
VERTEX
  5
54e
  8
Layer_0
  10
158.80144
  20
181.60263
  0
VERTEX
  5
54f
  8
Layer_0
  10
159.21645
  20
181.8371
  0
VERTEX
  5
550
  8
Layer_0
  10
159.60982
  20
182.05176
  0
VERTEX
  5
551
  8
Layer_0
  10
159.9801
  20
182.24554
  0
VERTEX
  5
552
  8
Layer_0
  10
160.32581
  20
182.41742
  0
VERTEX
  5
553
  8
Layer_0
  10
161.05995
  20
182.75244
  0
VERTEX
  5
554
  8
Layer_0
  10
161.80264
  20
183.05414
  0
VERTEX
  5
555
  8
Layer_0
  10
162.55119
  20
183.32217
  0
VERTEX
  5
556
  8
Layer_0
  10
163.30293
  20
183.5563
  0
VERTEX
  5
557
  8
Layer_0
  10
164.05521
  20
183.75623
  0
VERTEX
  5
558
  8
Layer_0
  10
164.8053
  20
183.92166
  0
VERTEX
  5
559
  8
Layer_0
  10
165.55055
  20
184.05231
  0
VERTEX
  5
55a
  8
Layer_0
  10
166.2883
  20
184.1479
  0
VERTEX
  5
55b
  8
Layer_0
  10
167.01585
  20
184.20816
  0
VERTEX
  5
55c
  8
Layer_0
  10
167.73055
  20
184.23276
  0
VERTEX
  5
55d
  8
Layer_0
  10
168.4297
  20
184.22145
  0
VERTEX
  5
55e
  8
Layer_0
  10
169.11063
  20
184.17395
  0
VERTEX
  5
55f
  8
Layer_0
  10
169.77065
  20
184.08997
  0
VERTEX
  5
560
  8
Layer_0
  10
170.4071
  20
183.96922
  0
VERTEX
  5
561
  8
Layer_0
  10
171.0173
  20
183.81143
  0
VERTEX
  5
562
  8
Layer_0
  10
171.59859
  20
183.61627
  0
VERTEX
  5
563
  8
Layer_0
  10
171.9407
  20
183.4722
  0
VERTEX
  5
564
  8
Layer_0
  10
172.3468
  20
183.27606
  0
VERTEX
  5
565
  8
Layer_0
  10
172.80756
  20
183.03394
  0
VERTEX
  5
566
  8
Layer_0
  10
173.31375
  20
182.75183
  0
VERTEX
  5
567
  8
Layer_0
  10
173.85609
  20
182.43578
  0
VERTEX
  5
568
  8
Layer_0
  10
174.42532
  20
182.0918
  0
VERTEX
  5
569
  8
Layer_0
  10
175.01215
  20
181.72595
  0
VERTEX
  5
56a
  8
Layer_0
  10
175.60732
  20
181.34422
  0
VERTEX
  5
56b
  8
Layer_0
  10
176.78558
  20
180.55728
  0
VERTEX
  5
56c
  8
Layer_0
  10
177.88593
  20
179.77919
  0
VERTEX
  5
56d
  8
Layer_0
  10
178.38373
  20
179.40855
  0
VERTEX
  5
56e
  8
Layer_0
  10
178.83423
  20
179.0582
  0
VERTEX
  5
56f
  8
Layer_0
  10
179.22816
  20
178.73416
  0
VERTEX
  5
570
  8
Layer_0
  10
179.55627
  20
178.44247
  0
VERTEX
  5
571
  8
Layer_0
  10
180.0479
  20
177.9442
  0
VERTEX
  5
572
  8
Layer_0
  10
180.47531
  20
177.42816
  0
VERTEX
  5
573
  8
Layer_0
  10
180.83858
  20
176.89146
  0
VERTEX
  5
574
  8
Layer_0
  10
181.13773
  20
176.33121
  0
VERTEX
  5
575
  8
Layer_0
  10
181.3728
  20
175.74449
  0
VERTEX
  5
576
  8
Layer_0
  10
181.54384
  20
175.12842
  0
VERTEX
  5
577
  8
Layer_0
  10
181.65091
  20
174.48009
  0
VERTEX
  5
578
  8
Layer_0
  10
181.69403
  20
173.79659
  0
VERTEX
  5
579
  8
Layer_0
  10
181.67328
  20
173.07503
  0
VERTEX
  5
57a
  8
Layer_0
  10
181.58868
  20
172.31253
  0
VERTEX
  5
57b
  8
Layer_0
  10
181.44031
  20
171.50618
  0
VERTEX
  5
57c
  8
Layer_0
  10
181.22818
  20
170.65308
  0
VERTEX
  5
57d
  8
Layer_0
  10
180.95235
  20
169.75032
  0
VERTEX
  5
57e
  8
Layer_0
  10
180.61285
  20
168.79501
  0
VERTEX
  5
57f
  8
Layer_0
  10
180.20975
  20
167.78424
  0
VERTEX
  5
580
  8
Layer_0
  10
179.7431
  20
166.71512
  0
VERTEX
  5
581
  8
Layer_0
  10
179.55109
  20
166.31039
  0
VERTEX
  5
582
  8
Layer_0
  10
179.32889
  20
165.87476
  0
VERTEX
  5
583
  8
Layer_0
  10
179.08051
  20
165.41431
  0
VERTEX
  5
584
  8
Layer_0
  10
178.80994
  20
164.93512
  0
VERTEX
  5
585
  8
Layer_0
  10
178.21822
  20
163.94485
  0
VERTEX
  5
586
  8
Layer_0
  10
177.58572
  20
162.95264
  0
VERTEX
  5
587
  8
Layer_0
  10
176.94444
  20
162.00711
  0
VERTEX
  5
588
  8
Layer_0
  10
176.32635
  20
161.15695
  0
VERTEX
  5
589
  8
Layer_0
  10
176.03601
  20
160.78284
  0
VERTEX
  5
58a
  8
Layer_0
  10
175.76346
  20
160.45079
  0
VERTEX
  5
58b
  8
Layer_0
  10
175.5127
  20
160.16692
  0
VERTEX
  5
58c
  8
Layer_0
  10
175.28772
  20
159.93729
  0
VERTEX
  5
58d
  8
Layer_0
  10
174.97055
  20
159.6196
  0
VERTEX
  5
58e
  8
Layer_0
  10
174.71082
  20
159.32899
  0
VERTEX
  5
58f
  8
Layer_0
  10
174.61087
  20
159.20389
  0
VERTEX
  5
590
  8
Layer_0
  10
174.53534
  20
159.09761
  0
VERTEX
  5
591
  8
Layer_0
  10
174.48755
  20
159.01419
  0
VERTEX
  5
592
  8
Layer_0
  10
174.47089
  20
158.95761
  0
VERTEX
  5
593
  8
Layer_0
  10
174.49571
  20
158.90591
  0
VERTEX
  5
594
  8
Layer_0
  10
174.56688
  20
158.83644
  0
VERTEX
  5
595
  8
Layer_0
  10
174.67941
  20
158.75226
  0
VERTEX
  5
596
  8
Layer_0
  10
174.82829
  20
158.65636
  0
VERTEX
  5
597
  8
Layer_0
  10
175.21516
  20
158.44168
  0
VERTEX
  5
598
  8
Layer_0
  10
175.95886
  20
158.0889
  0
VERTEX
  5
599
  8
Layer_0
  10
176.26379
  20
157.93156
  0
VERTEX
  5
59a
  8
Layer_0
  10
176.59203
  20
157.75089
  0
VERTEX
  5
59b
  8
Layer_0
  10
176.93317
  20
157.55305
  0
VERTEX
  5
59c
  8
Layer_0
  10
177.6127
  20
157.13051
  0
VERTEX
  5
59d
  8
Layer_0
  10
178.21927
  20
156.71324
  0
VERTEX
  5
59e
  8
Layer_0
  10
178.50003
  20
156.49155
  0
VERTEX
  5
59f
  8
Layer_0
  10
178.79628
  20
156.22879
  0
VERTEX
  5
5a0
  8
Layer_0
  10
179.10422
  20
155.93007
  0
VERTEX
  5
5a1
  8
Layer_0
  10
179.42001
  20
155.60052
  0
VERTEX
  5
5a2
  8
Layer_0
  10
180.0598
  20
154.86934
  0
VERTEX
  5
5a3
  8
Layer_0
  10
180.685
  20
154.07614
  0
VERTEX
  5
5a4
  8
Layer_0
  10
181.26491
  20
153.26184
  0
VERTEX
  5
5a5
  8
Layer_0
  10
181.76891
  20
152.46732
  0
VERTEX
  5
5a6
  8
Layer_0
  10
181.98285
  20
152.09024
  0
VERTEX
  5
5a7
  8
Layer_0
  10
182.16632
  20
151.73346
  0
VERTEX
  5
5a8
  8
Layer_0
  10
182.31549
  20
151.40207
  0
VERTEX
  5
5a9
  8
Layer_0
  10
182.42648
  20
151.1012
  0
VERTEX
  5
5aa
  8
Layer_0
  10
182.56058
  20
150.70953
  0
VERTEX
  5
5ab
  8
Layer_0
  10
182.69699
  20
150.35938
  0
VERTEX
  5
5ac
  8
Layer_0
  10
182.76108
  20
150.21181
  0
VERTEX
  5
5ad
  8
Layer_0
  10
182.81978
  20
150.08894
  0
VERTEX
  5
5ae
  8
Layer_0
  10
182.87108
  20
149.99556
  0
VERTEX
  5
5af
  8
Layer_0
  10
182.91295
  20
149.93646
  0
VERTEX
  5
5b0
  8
Layer_0
  10
182.9339
  20
149.95683
  0
VERTEX
  5
5b1
  8
Layer_0
  10
182.96564
  20
150.05069
  0
VERTEX
  5
5b2
  8
Layer_0
  10
183.00787
  20
150.21603
  0
VERTEX
  5
5b3
  8
Layer_0
  10
183.06024
  20
150.45081
  0
VERTEX
  5
5b4
  8
Layer_0
  10
183.12242
  20
150.75299
  0
VERTEX
  5
5b5
  8
Layer_0
  10
183.19409
  20
151.12057
  0
VERTEX
  5
5b6
  8
Layer_0
  10
183.27492
  20
151.55151
  0
VERTEX
  5
5b7
  8
Layer_0
  10
183.36456
  20
152.04381
  0
VERTEX
  5
5b8
  8
Layer_0
  10
183.56905
  20
153.20425
  0
VERTEX
  5
5b9
  8
Layer_0
  10
183.80487
  20
154.58566
  0
VERTEX
  5
5ba
  8
Layer_0
  10
184.06941
  20
156.17183
  0
VERTEX
  5
5bb
  8
Layer_0
  10
184.36002
  20
157.94653
  0
VERTEX
  5
5bc
  8
Layer_0
  10
184.67409
  20
159.89354
  0
VERTEX
  5
5bd
  8
Layer_0
  10
185.00896
  20
161.99664
  0
VERTEX
  5
5be
  8
Layer_0
  10
185.54451
  20
165.40845
  0
VERTEX
  5
5bf
  8
Layer_0
  10
186.11203
  20
169.08012
  0
VERTEX
  5
5c0
  8
Layer_0
  10
186.50377
  20
171.64526
  0
VERTEX
  5
5c1
  8
Layer_0
  10
186.90314
  20
174.28534
  0
VERTEX
  5
5c2
  8
Layer_0
  10
187.58487
  20
178.82755
  0
VERTEX
  5
5c3
  8
Layer_0
  10
187.85597
  20
180.59464
  0
VERTEX
  5
5c4
  8
Layer_0
  10
188.11987
  20
182.28067
  0
VERTEX
  5
5c5
  8
Layer_0
  10
188.3757
  20
183.88091
  0
VERTEX
  5
5c6
  8
Layer_0
  10
188.62263
  20
185.39053
  0
VERTEX
  5
5c7
  8
Layer_0
  10
188.85979
  20
186.80481
  0
VERTEX
  5
5c8
  8
Layer_0
  10
189.0863
  20
188.11899
  0
VERTEX
  5
5c9
  8
Layer_0
  10
189.3013
  20
189.32831
  0
VERTEX
  5
5ca
  8
Layer_0
  10
189.50394
  20
190.42799
  0
VERTEX
  5
5cb
  8
Layer_0
  10
189.60037
  20
190.93524
  0
VERTEX
  5
5cc
  8
Layer_0
  10
189.69337
  20
191.4133
  0
VERTEX
  5
5cd
  8
Layer_0
  10
189.78287
  20
191.86157
  0
VERTEX
  5
5ce
  8
Layer_0
  10
189.86871
  20
192.27945
  0
VERTEX
  5
5cf
  8
Layer_0
  10
189.95084
  20
192.66637
  0
VERTEX
  5
5d0
  8
Layer_0
  10
190.02911
  20
193.0217
  0
VERTEX
  5
5d1
  8
Layer_0
  10
190.10342
  20
193.34485
  0
VERTEX
  5
5d2
  8
Layer_0
  10
190.17371
  20
193.63525
  0
VERTEX
  5
5d3
  8
Layer_0
  10
190.23981
  20
193.89232
  0
VERTEX
  5
5d4
  8
Layer_0
  10
190.30164
  20
194.11542
  0
VERTEX
  5
5d5
  8
Layer_0
  10
190.35907
  20
194.30399
  0
VERTEX
  5
5d6
  8
Layer_0
  10
190.41205
  20
194.4574
  0
VERTEX
  5
5d7
  8
Layer_0
  10
190.46042
  20
194.57509
  0
VERTEX
  5
5d8
  8
Layer_0
  10
190.50407
  20
194.65643
  0
VERTEX
  5
5d9
  8
Layer_0
  10
190.76978
  20
194.98329
  0
VERTEX
  5
5da
  8
Layer_0
  10
191.10617
  20
195.26965
  0
VERTEX
  5
5db
  8
Layer_0
  10
191.50179
  20
195.51135
  0
VERTEX
  5
5dc
  8
Layer_0
  10
191.94519
  20
195.70425
  0
VERTEX
  5
5dd
  8
Layer_0
  10
192.42491
  20
195.84427
  0
VERTEX
  5
5de
  8
Layer_0
  10
192.9295
  20
195.92722
  0
VERTEX
  5
5df
  8
Layer_0
  10
193.44753
  20
195.94901
  0
VERTEX
  5
5e0
  8
Layer_0
  10
193.9675
  20
195.90549
  0
VERTEX
  5
5e1
  8
Layer_0
  10
194.37286
  20
195.82675
  0
VERTEX
  5
5e2
  8
Layer_0
  10
194.80045
  20
195.71066
  0
VERTEX
  5
5e3
  8
Layer_0
  10
195.24423
  20
195.56102
  0
VERTEX
  5
5e4
  8
Layer_0
  10
195.69818
  20
195.38159
  0
VERTEX
  5
5e5
  8
Layer_0
  10
196.61259
  20
194.94846
  0
VERTEX
  5
5e6
  8
Layer_0
  10
197.49561
  20
194.44141
  0
VERTEX
  5
5e7
  8
Layer_0
  10
197.91029
  20
194.16959
  0
VERTEX
  5
5e8
  8
Layer_0
  10
198.29909
  20
193.89063
  0
VERTEX
  5
5e9
  8
Layer_0
  10
198.65598
  20
193.60828
  0
VERTEX
  5
5ea
  8
Layer_0
  10
198.97496
  20
193.32629
  0
VERTEX
  5
5eb
  8
Layer_0
  10
199.25002
  20
193.04846
  0
VERTEX
  5
5ec
  8
Layer_0
  10
199.47513
  20
192.77858
  0
VERTEX
  5
5ed
  8
Layer_0
  10
199.64427
  20
192.52037
  0
VERTEX
  5
5ee
  8
Layer_0
  10
199.75143
  20
192.27763
  0
VERTEX
  5
5ef
  8
Layer_0
  10
199.79373
  20
192.15793
  0
VERTEX
  5
5f0
  8
Layer_0
  10
199.8389
  20
192.06253
  0
VERTEX
  5
5f1
  8
Layer_0
  10
199.88918
  20
191.99368
  0
VERTEX
  5
5f2
  8
Layer_0
  10
199.94684
  20
191.95364
  0
VERTEX
  5
5f3
  8
Layer_0
  10
200.01416
  20
191.94463
  0
VERTEX
  5
5f4
  8
Layer_0
  10
200.09341
  20
191.96884
  0
VERTEX
  5
5f5
  8
Layer_0
  10
200.18683
  20
192.02852
  0
VERTEX
  5
5f6
  8
Layer_0
  10
200.29672
  20
192.12592
  0
VERTEX
  5
5f7
  8
Layer_0
  10
200.42532
  20
192.26324
  0
VERTEX
  5
5f8
  8
Layer_0
  10
200.57492
  20
192.44272
  0
VERTEX
  5
5f9
  8
Layer_0
  10
200.74777
  20
192.66663
  0
VERTEX
  5
5fa
  8
Layer_0
  10
200.94614
  20
192.93713
  0
VERTEX
  5
5fb
  8
Layer_0
  10
201.17227
  20
193.2565
  0
VERTEX
  5
5fc
  8
Layer_0
  10
201.42847
  20
193.62698
  0
VERTEX
  5
5fd
  8
Layer_0
  10
201.71698
  20
194.05075
  0
VERTEX
  5
5fe
  8
Layer_0
  10
202.04007
  20
194.53009
  0
VERTEX
  5
5ff
  8
Layer_0
  10
202.79671
  20
195.62073
  0
VERTEX
  5
600
  8
Layer_0
  10
203.53732
  20
196.61467
  0
VERTEX
  5
601
  8
Layer_0
  10
204.26666
  20
197.51703
  0
VERTEX
  5
602
  8
Layer_0
  10
204.9895
  20
198.33295
  0
VERTEX
  5
603
  8
Layer_0
  10
205.71063
  20
199.06754
  0
VERTEX
  5
604
  8
Layer_0
  10
206.43481
  20
199.72589
  0
VERTEX
  5
605
  8
Layer_0
  10
207.16681
  20
200.3132
  0
VERTEX
  5
606
  8
Layer_0
  10
207.91136
  20
200.8345
  0
VERTEX
  5
607
  8
Layer_0
  10
208.3754
  20
201.12924
  0
VERTEX
  5
608
  8
Layer_0
  10
208.77426
  20
201.36224
  0
VERTEX
  5
609
  8
Layer_0
  10
209.12859
  20
201.54041
  0
VERTEX
  5
60a
  8
Layer_0
  10
209.45898
  20
201.67059
  0
VERTEX
  5
60b
  8
Layer_0
  10
209.78607
  20
201.7597
  0
VERTEX
  5
60c
  8
Layer_0
  10
210.13049
  20
201.81461
  0
VERTEX
  5
60d
  8
Layer_0
  10
210.51282
  20
201.84216
  0
VERTEX
  5
60e
  8
Layer_0
  10
210.95369
  20
201.84927
  0
VERTEX
  5
60f
  8
Layer_0
  10
211.71622
  20
201.8042
  0
VERTEX
  5
610
  8
Layer_0
  10
212.46574
  20
201.66943
  0
VERTEX
  5
611
  8
Layer_0
  10
213.20898
  20
201.44162
  0
VERTEX
  5
612
  8
Layer_0
  10
213.95259
  20
201.1174
  0
VERTEX
  5
613
  8
Layer_0
  10
214.32664
  20
200.91811
  0
VERTEX
  5
614
  8
Layer_0
  10
214.70331
  20
200.69345
  0
VERTEX
  5
615
  8
Layer_0
  10
215.08342
  20
200.44301
  0
VERTEX
  5
616
  8
Layer_0
  10
215.4678
  20
200.16638
  0
VERTEX
  5
617
  8
Layer_0
  10
215.85732
  20
199.86314
  0
VERTEX
  5
618
  8
Layer_0
  10
216.25278
  20
199.53288
  0
VERTEX
  5
619
  8
Layer_0
  10
216.65503
  20
199.17517
  0
VERTEX
  5
61a
  8
Layer_0
  10
217.06491
  20
198.78958
  0
VERTEX
  5
61b
  8
Layer_0
  10
217.49092
  20
198.36894
  0
VERTEX
  5
61c
  8
Layer_0
  10
217.8768
  20
197.96658
  0
VERTEX
  5
61d
  8
Layer_0
  10
218.22458
  20
197.57799
  0
VERTEX
  5
61e
  8
Layer_0
  10
218.53622
  20
197.19862
  0
VERTEX
  5
61f
  8
Layer_0
  10
218.81375
  20
196.82394
  0
VERTEX
  5
620
  8
Layer_0
  10
219.05914
  20
196.44943
  0
VERTEX
  5
621
  8
Layer_0
  10
219.2744
  20
196.07057
  0
VERTEX
  5
622
  8
Layer_0
  10
219.46155
  20
195.6828
  0
VERTEX
  5
623
  8
Layer_0
  10
219.62256
  20
195.28162
  0
VERTEX
  5
624
  8
Layer_0
  10
219.75943
  20
194.86252
  0
VERTEX
  5
625
  8
Layer_0
  10
219.87418
  20
194.42091
  0
VERTEX
  5
626
  8
Layer_0
  10
219.96878
  20
193.95233
  0
VERTEX
  5
627
  8
Layer_0
  10
220.04524
  20
193.45221
  0
VERTEX
  5
628
  8
Layer_0
  10
220.10556
  20
192.91603
  0
VERTEX
  5
629
  8
Layer_0
  10
220.15176
  20
192.33929
  0
VERTEX
  5
62a
  8
Layer_0
  10
220.18581
  20
191.71741
  0
VERTEX
  5
62b
  8
Layer_0
  10
220.20627
  20
190.72894
  0
VERTEX
  5
62c
  8
Layer_0
  10
220.1801
  20
189.74194
  0
VERTEX
  5
62d
  8
Layer_0
  10
220.10742
  20
188.75679
  0
VERTEX
  5
62e
  8
Layer_0
  10
219.98837
  20
187.77394
  0
VERTEX
  5
62f
  8
Layer_0
  10
219.82309
  20
186.79379
  0
VERTEX
  5
630
  8
Layer_0
  10
219.61172
  20
185.81674
  0
VERTEX
  5
631
  8
Layer_0
  10
219.35442
  20
184.84325
  0
VERTEX
  5
632
  8
Layer_0
  10
219.05128
  20
183.8737
  0
VERTEX
  5
633
  8
Layer_0
  10
218.70248
  20
182.90854
  0
VERTEX
  5
634
  8
Layer_0
  10
218.30817
  20
181.94815
  0
VERTEX
  5
635
  8
Layer_0
  10
217.86847
  20
180.99295
  0
VERTEX
  5
636
  8
Layer_0
  10
217.38353
  20
180.0434
  0
VERTEX
  5
637
  8
Layer_0
  10
216.85347
  20
179.09988
  0
VERTEX
  5
638
  8
Layer_0
  10
216.27846
  20
178.16281
  0
VERTEX
  5
639
  8
Layer_0
  10
215.65862
  20
177.23264
  0
VERTEX
  5
63a
  8
Layer_0
  10
214.99409
  20
176.30972
  0
VERTEX
  5
63b
  8
Layer_0
  10
214.57797
  20
175.77133
  0
VERTEX
  5
63c
  8
Layer_0
  10
214.11862
  20
175.21085
  0
VERTEX
  5
63d
  8
Layer_0
  10
213.62094
  20
174.63287
  0
VERTEX
  5
63e
  8
Layer_0
  10
213.08978
  20
174.04201
  0
VERTEX
  5
63f
  8
Layer_0
  10
211.94637
  20
172.84018
  0
VERTEX
  5
640
  8
Layer_0
  10
210.72723
  20
171.64229
  0
VERTEX
  5
641
  8
Layer_0
  10
209.47119
  20
170.48528
  0
VERTEX
  5
642
  8
Layer_0
  10
208.21709
  20
169.4061
  0
VERTEX
  5
643
  8
Layer_0
  10
207.60287
  20
168.90724
  0
VERTEX
  5
644
  8
Layer_0
  10
207.00374
  20
168.4417
  0
VERTEX
  5
645
  8
Layer_0
  10
206.42447
  20
168.01407
  0
VERTEX
  5
646
  8
Layer_0
  10
205.86996
  20
167.62901
  0
VERTEX
  5
647
  8
Layer_0
  10
205.33127
  20
167.26093
  0
VERTEX
  5
648
  8
Layer_0
  10
204.8718
  20
166.93184
  0
VERTEX
  5
649
  8
Layer_0
  10
204.49155
  20
166.64175
  0
VERTEX
  5
64a
  8
Layer_0
  10
204.19051
  20
166.39072
  0
VERTEX
  5
64b
  8
Layer_0
  10
203.96875
  20
166.17871
  0
VERTEX
  5
64c
  8
Layer_0
  10
203.82626
  20
166.00578
  0
VERTEX
  5
64d
  8
Layer_0
  10
203.76306
  20
165.87193
  0
VERTEX
  5
64e
  8
Layer_0
  10
203.77921
  20
165.77716
  0
VERTEX
  5
64f
  8
Layer_0
  10
204.28372
  20
165.10786
  0
VERTEX
  5
650
  8
Layer_0
  10
204.7411
  20
164.5262
  0
VERTEX
  5
651
  8
Layer_0
  10
205.16377
  20
164.01891
  0
VERTEX
  5
652
  8
Layer_0
  10
205.56416
  20
163.57269
  0
VERTEX
  5
653
  8
Layer_0
  10
205.95468
  20
163.1743
  0
VERTEX
  5
654
  8
Layer_0
  10
206.34778
  20
162.81049
  0
VERTEX
  5
655
  8
Layer_0
  10
206.75587
  20
162.46799
  0
VERTEX
  5
656
  8
Layer_0
  10
207.19136
  20
162.13348
  0
VERTEX
  5
657
  8
Layer_0
  10
207.75769
  20
161.73367
  0
VERTEX
  5
658
  8
Layer_0
  10
208.3446
  20
161.35498
  0
VERTEX
  5
659
  8
Layer_0
  10
208.94943
  20
160.99832
  0
VERTEX
  5
65a
  8
Layer_0
  10
209.56946
  20
160.66461
  0
VERTEX
  5
65b
  8
Layer_0
  10
210.20193
  20
160.35477
  0
VERTEX
  5
65c
  8
Layer_0
  10
210.84415
  20
160.0697
  0
VERTEX
  5
65d
  8
Layer_0
  10
211.49338
  20
159.8103
  0
VERTEX
  5
65e
  8
Layer_0
  10
212.14691
  20
159.57748
  0
VERTEX
  5
65f
  8
Layer_0
  10
212.80203
  20
159.37216
  0
VERTEX
  5
660
  8
Layer_0
  10
213.45599
  20
159.19527
  0
VERTEX
  5
661
  8
Layer_0
  10
214.10608
  20
159.0477
  0
VERTEX
  5
662
  8
Layer_0
  10
214.7496
  20
158.93036
  0
VERTEX
  5
663
  8
Layer_0
  10
215.38382
  20
158.84415
  0
VERTEX
  5
664
  8
Layer_0
  10
216.00601
  20
158.79001
  0
VERTEX
  5
665
  8
Layer_0
  10
216.61346
  20
158.76883
  0
VERTEX
  5
666
  8
Layer_0
  10
217.20346
  20
158.78152
  0
VERTEX
  5
667
  8
Layer_0
  10
218.77206
  20
158.86244
  0
VERTEX
  5
668
  8
Layer_0
  10
220.84207
  20
167.40088
  0
VERTEX
  5
669
  8
Layer_0
  10
219.97098
  20
168.1792
  0
VERTEX
  5
66a
  8
Layer_0
  10
219.77243
  20
168.3674
  0
VERTEX
  5
66b
  8
Layer_0
  10
219.60529
  20
168.55005
  0
VERTEX
  5
66c
  8
Layer_0
  10
219.46985
  20
168.72829
  0
VERTEX
  5
66d
  8
Layer_0
  10
219.36638
  20
168.90318
  0
VERTEX
  5
66e
  8
Layer_0
  10
219.29518
  20
169.07587
  0
VERTEX
  5
66f
  8
Layer_0
  10
219.25652
  20
169.2475
  0
VERTEX
  5
670
  8
Layer_0
  10
219.25067
  20
169.41913
  0
VERTEX
  5
671
  8
Layer_0
  10
219.27794
  20
169.59192
  0
VERTEX
  5
672
  8
Layer_0
  10
219.33859
  20
169.76698
  0
VERTEX
  5
673
  8
Layer_0
  10
219.43292
  20
169.9454
  0
VERTEX
  5
674
  8
Layer_0
  10
219.56119
  20
170.12836
  0
VERTEX
  5
675
  8
Layer_0
  10
219.72371
  20
170.31689
  0
VERTEX
  5
676
  8
Layer_0
  10
219.92075
  20
170.51216
  0
VERTEX
  5
677
  8
Layer_0
  10
220.15257
  20
170.71527
  0
VERTEX
  5
678
  8
Layer_0
  10
220.41946
  20
170.92735
  0
VERTEX
  5
679
  8
Layer_0
  10
220.72174
  20
171.14951
  0
VERTEX
  5
67a
  8
Layer_0
  10
222.00354
  20
172.06093
  0
VERTEX
  5
67b
  8
Layer_0
  10
224.18022
  20
180.93787
  0
VERTEX
  5
67c
  8
Layer_0
  10
225.16621
  20
184.94357
  0
VERTEX
  5
67d
  8
Layer_0
  10
225.7618
  20
187.34276
  0
VERTEX
  5
67e
  8
Layer_0
  10
226.31396
  20
189.54692
  0
VERTEX
  5
67f
  8
Layer_0
  10
226.82785
  20
191.57489
  0
VERTEX
  5
680
  8
Layer_0
  10
227.30859
  20
193.44559
  0
VERTEX
  5
681
  8
Layer_0
  10
227.76134
  20
195.17781
  0
VERTEX
  5
682
  8
Layer_0
  10
227.97882
  20
195.99789
  0
VERTEX
  5
683
  8
Layer_0
  10
228.19125
  20
196.79044
  0
VERTEX
  5
684
  8
Layer_0
  10
228.39923
  20
197.5578
  0
VERTEX
  5
685
  8
Layer_0
  10
228.8045
  20
199.02637
  0
VERTEX
  5
686
  8
Layer_0
  10
229.19977
  20
200.42249
  0
VERTEX
  5
687
  8
Layer_0
  10
229.59016
  20
201.76498
  0
VERTEX
  5
688
  8
Layer_0
  10
229.98083
  20
203.07274
  0
VERTEX
  5
689
  8
Layer_0
  10
230.37692
  20
204.36459
  0
VERTEX
  5
68a
  8
Layer_0
  10
230.78357
  20
205.65941
  0
VERTEX
  5
68b
  8
Layer_0
  10
231.20593
  20
206.97604
  0
VERTEX
  5
68c
  8
Layer_0
  10
232.13007
  20
209.79947
  0
VERTEX
  5
68d
  8
Layer_0
  10
232.81938
  20
211.91641
  0
VERTEX
  5
68e
  8
Layer_0
  10
233.43594
  20
213.82794
  0
VERTEX
  5
68f
  8
Layer_0
  10
233.94127
  20
215.41399
  0
VERTEX
  5
690
  8
Layer_0
  10
234.19733
  20
216.2312
  0
VERTEX
  5
691
  8
Layer_0
  10
234.37541
  20
216.81483
  0
VERTEX
  5
692
  8
Layer_0
  10
234.43164
  20
217.0079
  0
VERTEX
  5
693
  8
Layer_0
  10
234.62494
  20
217.60229
  0
VERTEX
  5
694
  8
Layer_0
  10
234.84784
  20
218.11516
  0
VERTEX
  5
695
  8
Layer_0
  10
235.10379
  20
218.55002
  0
VERTEX
  5
696
  8
Layer_0
  10
235.39615
  20
218.91042
  0
VERTEX
  5
697
  8
Layer_0
  10
235.72832
  20
219.19989
  0
VERTEX
  5
698
  8
Layer_0
  10
236.1037
  20
219.42195
  0
VERTEX
  5
699
  8
Layer_0
  10
236.5257
  20
219.58015
  0
VERTEX
  5
69a
  8
Layer_0
  10
236.99771
  20
219.67802
  0
VERTEX
  5
69b
  8
Layer_0
  10
237.54202
  20
219.75716
  0
VERTEX
  5
69c
  8
Layer_0
  10
239.47743
  20
220.05078
  0
VERTEX
  5
69d
  8
Layer_0
  10
240.63013
  20
220.22913
  0
VERTEX
  5
69e
  8
Layer_0
  10
241.72009
  20
220.36996
  0
VERTEX
  5
69f
  8
Layer_0
  10
242.84323
  20
220.46286
  0
VERTEX
  5
6a0
  8
Layer_0
  10
243.96027
  20
220.5087
  0
VERTEX
  5
6a1
  8
Layer_0
  10
245.03194
  20
220.50836
  0
VERTEX
  5
6a2
  8
Layer_0
  10
245.53848
  20
220.49113
  0
VERTEX
  5
6a3
  8
Layer_0
  10
246.01895
  20
220.46271
  0
VERTEX
  5
6a4
  8
Layer_0
  10
246.46844
  20
220.42319
  0
VERTEX
  5
6a5
  8
Layer_0
  10
246.88202
  20
220.37263
  0
VERTEX
  5
6a6
  8
Layer_0
  10
247.25479
  20
220.31122
  0
VERTEX
  5
6a7
  8
Layer_0
  10
247.58188
  20
220.23901
  0
VERTEX
  5
6a8
  8
Layer_0
  10
247.85834
  20
220.15613
  0
VERTEX
  5
6a9
  8
Layer_0
  10
248.07925
  20
220.0627
  0
VERTEX
  5
6aa
  8
Layer_0
  10
248.23705
  20
219.96771
  0
VERTEX
  5
6ab
  8
Layer_0
  10
248.38422
  20
219.84735
  0
VERTEX
  5
6ac
  8
Layer_0
  10
248.52243
  20
219.69565
  0
VERTEX
  5
6ad
  8
Layer_0
  10
248.65329
  20
219.50667
  0
VERTEX
  5
6ae
  8
Layer_0
  10
248.77844
  20
219.27441
  0
VERTEX
  5
6af
  8
Layer_0
  10
248.89954
  20
218.99289
  0
VERTEX
  5
6b0
  8
Layer_0
  10
249.01822
  20
218.65614
  0
VERTEX
  5
6b1
  8
Layer_0
  10
249.13609
  20
218.25821
  0
VERTEX
  5
6b2
  8
Layer_0
  10
249.25482
  20
217.79309
  0
VERTEX
  5
6b3
  8
Layer_0
  10
249.37604
  20
217.25485
  0
VERTEX
  5
6b4
  8
Layer_0
  10
249.50137
  20
216.63747
  0
VERTEX
  5
6b5
  8
Layer_0
  10
249.63246
  20
215.935
  0
VERTEX
  5
6b6
  8
Layer_0
  10
249.77095
  20
215.14145
  0
VERTEX
  5
6b7
  8
Layer_0
  10
249.91849
  20
214.25089
  0
VERTEX
  5
6b8
  8
Layer_0
  10
250.07669
  20
213.25729
  0
VERTEX
  5
6b9
  8
Layer_0
  10
250.35828
  20
211.43896
  0
VERTEX
  5
6ba
  8
Layer_0
  10
250.48676
  20
210.63033
  0
VERTEX
  5
6bb
  8
Layer_0
  10
250.63132
  20
209.73624
  0
VERTEX
  5
6bc
  8
Layer_0
  10
250.96341
  20
207.72147
  0
VERTEX
  5
6bd
  8
Layer_0
  10
251.34407
  20
205.45412
  0
VERTEX
  5
6be
  8
Layer_0
  10
251.7628
  20
202.99362
  0
VERTEX
  5
6bf
  8
Layer_0
  10
252.20908
  20
200.39946
  0
VERTEX
  5
6c0
  8
Layer_0
  10
252.90721
  20
196.38762
  0
VERTEX
  5
6c1
  8
Layer_0
  10
253.37646
  20
193.71936
  0
VERTEX
  5
6c2
  8
Layer_0
  10
253.8365
  20
191.12553
  0
VERTEX
  5
6c3
  8
Layer_0
  10
254.27687
  20
188.66559
  0
VERTEX
  5
6c4
  8
Layer_0
  10
254.68704
  20
186.39897
  0
VERTEX
  5
6c5
  8
Layer_0
  10
255.05655
  20
184.38516
  0
VERTEX
  5
6c6
  8
Layer_0
  10
255.37485
  20
182.68359
  0
VERTEX
  5
6c7
  8
Layer_0
  10
255.57364
  20
181.6481
  0
VERTEX
  5
6c8
  8
Layer_0
  10
255.73332
  20
180.84677
  0
VERTEX
  5
6c9
  8
Layer_0
  10
255.81584
  20
180.45502
  0
VERTEX
  5
6ca
  8
Layer_0
  10
255.87769
  20
180.18594
  0
VERTEX
  5
6cb
  8
Layer_0
  10
255.90045
  20
180.09973
  0
VERTEX
  5
6cc
  8
Layer_0
  10
255.91756
  20
180.04694
  0
VERTEX
  5
6cd
  8
Layer_0
  10
255.94379
  20
180.00542
  0
VERTEX
  5
6ce
  8
Layer_0
  10
255.9736
  20
180.00327
  0
VERTEX
  5
6cf
  8
Layer_0
  10
256.00696
  20
180.04007
  0
VERTEX
  5
6d0
  8
Layer_0
  10
256.04376
  20
180.11542
  0
VERTEX
  5
6d1
  8
Layer_0
  10
256.08392
  20
180.22894
  0
VERTEX
  5
6d2
  8
Layer_0
  10
256.12738
  20
180.38023
  0
VERTEX
  5
6d3
  8
Layer_0
  10
256.17398
  20
180.56891
  0
VERTEX
  5
6d4
  8
Layer_0
  10
256.22369
  20
180.79454
  0
VERTEX
  5
6d5
  8
Layer_0
  10
256.27643
  20
181.05673
  0
VERTEX
  5
6d6
  8
Layer_0
  10
256.33209
  20
181.35512
  0
VERTEX
  5
6d7
  8
Layer_0
  10
256.39066
  20
181.68929
  0
VERTEX
  5
6d8
  8
Layer_0
  10
256.45197
  20
182.05884
  0
VERTEX
  5
6d9
  8
Layer_0
  10
256.51593
  20
182.46338
  0
VERTEX
  5
6da
  8
Layer_0
  10
256.58255
  20
182.9025
  0
VERTEX
  5
6db
  8
Layer_0
  10
256.65167
  20
183.37581
  0
VERTEX
  5
6dc
  8
Layer_0
  10
256.797
  20
184.3996
  0
VERTEX
  5
6dd
  8
Layer_0
  10
257.00882
  20
185.81622
  0
VERTEX
  5
6de
  8
Layer_0
  10
257.4649
  20
188.75604
  0
VERTEX
  5
6df
  8
Layer_0
  10
257.84338
  20
191.14772
  0
VERTEX
  5
6e0
  8
Layer_0
  10
258.26724
  20
193.79568
  0
VERTEX
  5
6e1
  8
Layer_0
  10
258.7243
  20
196.62354
  0
VERTEX
  5
6e2
  8
Layer_0
  10
259.20239
  20
199.55487
  0
VERTEX
  5
6e3
  8
Layer_0
  10
260.1824
  20
205.52011
  0
VERTEX
  5
6e4
  8
Layer_0
  10
260.67816
  20
208.59036
  0
VERTEX
  5
6e5
  8
Layer_0
  10
260.92285
  20
210.12234
  0
VERTEX
  5
6e6
  8
Layer_0
  10
261.3974
  20
213.12621
  0
VERTEX
  5
6e7
  8
Layer_0
  10
261.84119
  20
215.97806
  0
VERTEX
  5
6e8
  8
Layer_0
  10
262.2406
  20
218.59178
  0
VERTEX
  5
6e9
  8
Layer_0
  10
262.41956
  20
219.78242
  0
VERTEX
  5
6ea
  8
Layer_0
  10
262.65723
  20
221.39282
  0
VERTEX
  5
6eb
  8
Layer_0
  10
262.85309
  20
222.76022
  0
VERTEX
  5
6ec
  8
Layer_0
  10
263.14542
  20
224.87471
  0
VERTEX
  5
6ed
  8
Layer_0
  10
263.33212
  20
226.15103
  0
VERTEX
  5
6ee
  8
Layer_0
  10
263.42352
  20
226.7504
  0
VERTEX
  5
6ef
  8
Layer_0
  10
263.51279
  20
227.31912
  0
VERTEX
  5
6f0
  8
Layer_0
  10
263.5993
  20
227.85358
  0
VERTEX
  5
6f1
  8
Layer_0
  10
263.6825
  20
228.35019
  0
VERTEX
  5
6f2
  8
Layer_0
  10
263.76172
  20
228.80539
  0
VERTEX
  5
6f3
  8
Layer_0
  10
263.83636
  20
229.21555
  0
VERTEX
  5
6f4
  8
Layer_0
  10
263.90582
  20
229.57706
  0
VERTEX
  5
6f5
  8
Layer_0
  10
263.96945
  20
229.88635
  0
VERTEX
  5
6f6
  8
Layer_0
  10
264.02667
  20
230.13983
  0
VERTEX
  5
6f7
  8
Layer_0
  10
264.07687
  20
230.33392
  0
VERTEX
  5
6f8
  8
Layer_0
  10
264.11942
  20
230.465
  0
VERTEX
  5
6f9
  8
Layer_0
  10
264.15375
  20
230.52946
  0
VERTEX
  5
6fa
  8
Layer_0
  10
264.25632
  20
230.58902
  0
VERTEX
  5
6fb
  8
Layer_0
  10
264.43518
  20
230.64404
  0
VERTEX
  5
6fc
  8
Layer_0
  10
264.68152
  20
230.69345
  0
VERTEX
  5
6fd
  8
Layer_0
  10
264.98633
  20
230.73621
  0
VERTEX
  5
6fe
  8
Layer_0
  10
265.34085
  20
230.77127
  0
VERTEX
  5
6ff
  8
Layer_0
  10
265.73618
  20
230.79762
  0
VERTEX
  5
700
  8
Layer_0
  10
266.16342
  20
230.81418
  0
VERTEX
  5
701
  8
Layer_0
  10
266.61374
  20
230.8199
  0
VERTEX
  5
702
  8
Layer_0
  10
267.53391
  20
230.78705
  0
VERTEX
  5
703
  8
Layer_0
  10
268.39117
  20
230.68542
  0
VERTEX
  5
704
  8
Layer_0
  10
269.19781
  20
230.51024
  0
VERTEX
  5
705
  8
Layer_0
  10
269.96619
  20
230.25667
  0
VERTEX
  5
706
  8
Layer_0
  10
270.70862
  20
229.91989
  0
VERTEX
  5
707
  8
Layer_0
  10
271.43738
  20
229.49509
  0
VERTEX
  5
708
  8
Layer_0
  10
272.16492
  20
228.97745
  0
VERTEX
  5
709
  8
Layer_0
  10
272.90344
  20
228.36215
  0
VERTEX
  5
70a
  8
Layer_0
  10
274.11383
  20
227.28517
  0
VERTEX
  5
70b
  8
Layer_0
  10
274.58368
  20
228.08061
  0
VERTEX
  5
70c
  8
Layer_0
  10
274.74689
  20
228.33778
  0
VERTEX
  5
70d
  8
Layer_0
  10
274.97308
  20
228.66592
  0
VERTEX
  5
70e
  8
Layer_0
  10
275.25412
  20
229.0549
  0
VERTEX
  5
70f
  8
Layer_0
  10
275.58185
  20
229.4946
  0
VERTEX
  5
710
  8
Layer_0
  10
275.94812
  20
229.97488
  0
VERTEX
  5
711
  8
Layer_0
  10
276.34479
  20
230.48563
  0
VERTEX
  5
712
  8
Layer_0
  10
276.76364
  20
231.01669
  0
VERTEX
  5
713
  8
Layer_0
  10
277.19662
  20
231.55798
  0
VERTEX
  5
714
  8
Layer_0
  10
278.0722
  20
232.63071
  0
VERTEX
  5
715
  8
Layer_0
  10
278.90625
  20
233.6228
  0
VERTEX
  5
716
  8
Layer_0
  10
279.28732
  20
234.06329
  0
VERTEX
  5
717
  8
Layer_0
  10
279.63354
  20
234.45325
  0
VERTEX
  5
718
  8
Layer_0
  10
279.9368
  20
234.78256
  0
VERTEX
  5
719
  8
Layer_0
  10
280.1889
  20
235.04108
  0
VERTEX
  5
71a
  8
Layer_0
  10
280.66791
  20
235.47736
  0
VERTEX
  5
71b
  8
Layer_0
  10
281.16074
  20
235.86008
  0
VERTEX
  5
71c
  8
Layer_0
  10
281.66599
  20
236.18918
  0
VERTEX
  5
71d
  8
Layer_0
  10
282.18213
  20
236.46452
  0
VERTEX
  5
71e
  8
Layer_0
  10
282.70776
  20
236.68605
  0
VERTEX
  5
71f
  8
Layer_0
  10
283.24133
  20
236.8537
  0
VERTEX
  5
720
  8
Layer_0
  10
283.78149
  20
236.96735
  0
VERTEX
  5
721
  8
Layer_0
  10
284.32669
  20
237.02693
  0
VERTEX
  5
722
  8
Layer_0
  10
284.87549
  20
237.03235
  0
VERTEX
  5
723
  8
Layer_0
  10
285.42639
  20
236.98352
  0
VERTEX
  5
724
  8
Layer_0
  10
285.978
  20
236.88034
  0
VERTEX
  5
725
  8
Layer_0
  10
286.52875
  20
236.72275
  0
VERTEX
  5
726
  8
Layer_0
  10
287.07727
  20
236.51062
  0
VERTEX
  5
727
  8
Layer_0
  10
287.62207
  20
236.24393
  0
VERTEX
  5
728
  8
Layer_0
  10
288.16168
  20
235.92253
  0
VERTEX
  5
729
  8
Layer_0
  10
288.69461
  20
235.54636
  0
VERTEX
  5
72a
  8
Layer_0
  10
289.58704
  20
234.86566
  0
VERTEX
  5
72b
  8
Layer_0
  10
288.94119
  20
236.14978
  0
VERTEX
  5
72c
  8
Layer_0
  10
288.54688
  20
236.97241
  0
VERTEX
  5
72d
  8
Layer_0
  10
288.19202
  20
237.78848
  0
VERTEX
  5
72e
  8
Layer_0
  10
287.88348
  20
238.577
  0
VERTEX
  5
72f
  8
Layer_0
  10
287.62793
  20
239.31694
  0
VERTEX
  5
730
  8
Layer_0
  10
287.52209
  20
239.66214
  0
VERTEX
  5
731
  8
Layer_0
  10
287.43207
  20
239.98729
  0
VERTEX
  5
732
  8
Layer_0
  10
287.35864
  20
240.28981
  0
VERTEX
  5
733
  8
Layer_0
  10
287.30267
  20
240.56706
  0
VERTEX
  5
734
  8
Layer_0
  10
287.26498
  20
240.81641
  0
VERTEX
  5
735
  8
Layer_0
  10
287.24643
  20
241.03522
  0
VERTEX
  5
736
  8
Layer_0
  10
287.24783
  20
241.22086
  0
VERTEX
  5
737
  8
Layer_0
  10
287.27005
  20
241.37074
  0
VERTEX
  5
738
  8
Layer_0
  10
287.37405
  20
241.69653
  0
VERTEX
  5
739
  8
Layer_0
  10
287.51932
  20
242.01614
  0
VERTEX
  5
73a
  8
Layer_0
  10
287.70282
  20
242.32755
  0
VERTEX
  5
73b
  8
Layer_0
  10
287.92151
  20
242.62868
  0
VERTEX
  5
73c
  8
Layer_0
  10
288.17242
  20
242.91751
  0
VERTEX
  5
73d
  8
Layer_0
  10
288.45251
  20
243.19202
  0
VERTEX
  5
73e
  8
Layer_0
  10
288.75876
  20
243.45016
  0
VERTEX
  5
73f
  8
Layer_0
  10
289.0882
  20
243.6899
  0
VERTEX
  5
740
  8
Layer_0
  10
289.43774
  20
243.90918
  0
VERTEX
  5
741
  8
Layer_0
  10
289.80444
  20
244.10599
  0
VERTEX
  5
742
  8
Layer_0
  10
290.18527
  20
244.27829
  0
VERTEX
  5
743
  8
Layer_0
  10
290.57721
  20
244.42401
  0
VERTEX
  5
744
  8
Layer_0
  10
290.97723
  20
244.54114
  0
VERTEX
  5
745
  8
Layer_0
  10
291.38232
  20
244.62766
  0
VERTEX
  5
746
  8
Layer_0
  10
291.78949
  20
244.68149
  0
VERTEX
  5
747
  8
Layer_0
  10
292.19574
  20
244.70061
  0
VERTEX
  5
748
  8
Layer_0
  10
292.80359
  20
244.65633
  0
VERTEX
  5
749
  8
Layer_0
  10
293.44519
  20
244.52718
  0
VERTEX
  5
74a
  8
Layer_0
  10
294.09866
  20
244.32346
  0
VERTEX
  5
74b
  8
Layer_0
  10
294.7421
  20
244.05548
  0
VERTEX
  5
74c
  8
Layer_0
  10
295.35358
  20
243.73351
  0
VERTEX
  5
74d
  8
Layer_0
  10
295.91125
  20
243.36786
  0
VERTEX
  5
74e
  8
Layer_0
  10
296.16302
  20
243.17188
  0
VERTEX
  5
74f
  8
Layer_0
  10
296.39313
  20
242.96884
  0
VERTEX
  5
750
  8
Layer_0
  10
296.59888
  20
242.76003
  0
VERTEX
  5
751
  8
Layer_0
  10
296.7774
  20
242.54672
  0
VERTEX
  5
752
  8
Layer_0
  10
296.86169
  20
242.41803
  0
VERTEX
  5
753
  8
Layer_0
  10
296.96655
  20
242.22701
  0
VERTEX
  5
754
  8
Layer_0
  10
297.0907
  20
241.97682
  0
VERTEX
  5
755
  8
Layer_0
  10
297.23285
  20
241.67064
  0
VERTEX
  5
756
  8
Layer_0
  10
297.39175
  20
241.31163
  0
VERTEX
  5
757
  8
Layer_0
  10
297.56616
  20
240.90294
  0
VERTEX
  5
758
  8
Layer_0
  10
297.75482
  20
240.44775
  0
VERTEX
  5
759
  8
Layer_0
  10
297.95642
  20
239.94922
  0
VERTEX
  5
75a
  8
Layer_0
  10
298.16974
  20
239.41049
  0
VERTEX
  5
75b
  8
Layer_0
  10
298.39349
  20
238.83478
  0
VERTEX
  5
75c
  8
Layer_0
  10
298.62637
  20
238.22519
  0
VERTEX
  5
75d
  8
Layer_0
  10
298.86719
  20
237.58492
  0
VERTEX
  5
75e
  8
Layer_0
  10
299.36749
  20
236.22495
  0
VERTEX
  5
75f
  8
Layer_0
  10
299.88416
  20
234.78015
  0
VERTEX
  5
760
  8
Layer_0
  10
300.29797
  20
233.6124
  0
VERTEX
  5
761
  8
Layer_0
  10
300.69339
  20
232.50751
  0
VERTEX
  5
762
  8
Layer_0
  10
301.06979
  20
231.46718
  0
VERTEX
  5
763
  8
Layer_0
  10
301.42651
  20
230.49315
  0
VERTEX
  5
764
  8
Layer_0
  10
301.76282
  20
229.58714
  0
VERTEX
  5
765
  8
Layer_0
  10
302.07806
  20
228.75089
  0
VERTEX
  5
766
  8
Layer_0
  10
302.37158
  20
227.98608
  0
VERTEX
  5
767
  8
Layer_0
  10
302.64261
  20
227.29446
  0
VERTEX
  5
768
  8
Layer_0
  10
302.8905
  20
226.67776
  0
VERTEX
  5
769
  8
Layer_0
  10
303.11462
  20
226.1377
  0
VERTEX
  5
76a
  8
Layer_0
  10
303.31421
  20
225.67599
  0
VERTEX
  5
76b
  8
Layer_0
  10
303.48865
  20
225.29437
  0
VERTEX
  5
76c
  8
Layer_0
  10
303.63724
  20
224.99457
  0
VERTEX
  5
76d
  8
Layer_0
  10
303.75925
  20
224.77827
  0
VERTEX
  5
76e
  8
Layer_0
  10
303.85406
  20
224.64725
  0
VERTEX
  5
76f
  8
Layer_0
  10
303.92096
  20
224.60318
  0
VERTEX
  5
770
  8
Layer_0
  10
303.94019
  20
224.62
  0
VERTEX
  5
771
  8
Layer_0
  10
303.97302
  20
224.66933
  0
VERTEX
  5
772
  8
Layer_0
  10
304.01868
  20
224.74951
  0
VERTEX
  5
773
  8
Layer_0
  10
304.07642
  20
224.8589
  0
VERTEX
  5
774
  8
Layer_0
  10
304.14545
  20
224.99582
  0
VERTEX
  5
775
  8
Layer_0
  10
304.22491
  20
225.15862
  0
VERTEX
  5
776
  8
Layer_0
  10
304.41235
  20
225.55516
  0
VERTEX
  5
777
  8
Layer_0
  10
304.63257
  20
226.03525
  0
VERTEX
  5
778
  8
Layer_0
  10
304.87933
  20
226.58562
  0
VERTEX
  5
779
  8
Layer_0
  10
305.14648
  20
227.19293
  0
VERTEX
  5
77a
  8
Layer_0
  10
305.72632
  20
228.53722
  0
VERTEX
  5
77b
  8
Layer_0
  10
306.03922
  20
229.25766
  0
VERTEX
  5
77c
  8
Layer_0
  10
306.36523
  20
230.00261
  0
VERTEX
  5
77d
  8
Layer_0
  10
306.70316
  20
230.76941
  0
VERTEX
  5
77e
  8
Layer_0
  10
307.40979
  20
232.35797
  0
VERTEX
  5
77f
  8
Layer_0
  10
308.1492
  20
234.00214
  0
VERTEX
  5
780
  8
Layer_0
  10
309.68646
  20
237.3723
  0
VERTEX
  5
781
  8
Layer_0
  10
311.23541
  20
240.71011
  0
VERTEX
  5
782
  8
Layer_0
  10
311.9895
  20
242.31383
  0
VERTEX
  5
783
  8
Layer_0
  10
312.71667
  20
243.84579
  0
VERTEX
  5
784
  8
Layer_0
  10
313.06708
  20
244.57823
  0
VERTEX
  5
785
  8
Layer_0
  10
313.73529
  20
245.96277
  0
VERTEX
  5
786
  8
Layer_0
  10
314.05066
  20
246.60956
  0
VERTEX
  5
787
  8
Layer_0
  10
314.35187
  20
247.22249
  0
VERTEX
  5
788
  8
Layer_0
  10
314.63763
  20
247.7989
  0
VERTEX
  5
789
  8
Layer_0
  10
314.90674
  20
248.33617
  0
VERTEX
  5
78a
  8
Layer_0
  10
315.15796
  20
248.8316
  0
VERTEX
  5
78b
  8
Layer_0
  10
315.39005
  20
249.28258
  0
VERTEX
  5
78c
  8
Layer_0
  10
315.60175
  20
249.68645
  0
VERTEX
  5
78d
  8
Layer_0
  10
315.79184
  20
250.04053
  0
VERTEX
  5
78e
  8
Layer_0
  10
315.95908
  20
250.34216
  0
VERTEX
  5
78f
  8
Layer_0
  10
316.46661
  20
251.2265
  0
VERTEX
  5
790
  8
Layer_0
  10
316.94891
  20
252.03995
  0
VERTEX
  5
791
  8
Layer_0
  10
317.40897
  20
252.78589
  0
VERTEX
  5
792
  8
Layer_0
  10
317.84985
  20
253.4677
  0
VERTEX
  5
793
  8
Layer_0
  10
318.2746
  20
254.08875
  0
VERTEX
  5
794
  8
Layer_0
  10
318.68628
  20
254.65239
  0
VERTEX
  5
795
  8
Layer_0
  10
319.08786
  20
255.16202
  0
VERTEX
  5
796
  8
Layer_0
  10
319.48242
  20
255.62099
  0
VERTEX
  5
797
  8
Layer_0
  10
319.87302
  20
256.03265
  0
VERTEX
  5
798
  8
Layer_0
  10
320.2627
  20
256.40045
  0
VERTEX
  5
799
  8
Layer_0
  10
320.65448
  20
256.72772
  0
VERTEX
  5
79a
  8
Layer_0
  10
321.05139
  20
257.01782
  0
VERTEX
  5
79b
  8
Layer_0
  10
321.45648
  20
257.27414
  0
VERTEX
  5
79c
  8
Layer_0
  10
321.8728
  20
257.50003
  0
VERTEX
  5
79d
  8
Layer_0
  10
322.30341
  20
257.69885
  0
VERTEX
  5
79e
  8
Layer_0
  10
322.75131
  20
257.87405
  0
VERTEX
  5
79f
  8
Layer_0
  10
323.1749
  20
257.99664
  0
VERTEX
  5
7a0
  8
Layer_0
  10
323.66116
  20
258.08661
  0
VERTEX
  5
7a1
  8
Layer_0
  10
324.19229
  20
258.14374
  0
VERTEX
  5
7a2
  8
Layer_0
  10
324.75046
  20
258.16782
  0
VERTEX
  5
7a3
  8
Layer_0
  10
325.31781
  20
258.15857
  0
VERTEX
  5
7a4
  8
Layer_0
  10
325.87656
  20
258.11572
  0
VERTEX
  5
7a5
  8
Layer_0
  10
326.40881
  20
258.03912
  0
VERTEX
  5
7a6
  8
Layer_0
  10
326.89679
  20
257.92847
  0
SEQEND
  0
POLYLINE
  5
7a8
  8
Layer_0
  62
0
  70
1
  66
1
  10
0
  20
0
  30
0
  0
VERTEX
  5
7a8
  8
Layer_0
  10
148.87918
  20
243.48251
  0
VERTEX
  5
7a9
  8
Layer_0
  10
149.06622
  20
243.37802
  0
VERTEX
  5
7aa
  8
Layer_0
  10
149.31134
  20
243.22902
  0
VERTEX
  5
7ab
  8
Layer_0
  10
149.60408
  20
243.04247
  0
VERTEX
  5
7ac
  8
Layer_0
  10
149.93407
  20
242.82529
  0
VERTEX
  5
7ad
  8
Layer_0
  10
150.66409
  20
242.32687
  0
VERTEX
  5
7ae
  8
Layer_0
  10
151.41806
  20
241.78929
  0
VERTEX
  5
7af
  8
Layer_0
  10
151.95219
  20
241.41101
  0
VERTEX
  5
7b0
  8
Layer_0
  10
152.44341
  20
241.09248
  0
VERTEX
  5
7b1
  8
Layer_0
  10
152.92065
  20
240.82095
  0
VERTEX
  5
7b2
  8
Layer_0
  10
153.41293
  20
240.58368
  0
VERTEX
  5
7b3
  8
Layer_0
  10
153.94925
  20
240.36787
  0
VERTEX
  5
7b4
  8
Layer_0
  10
154.55856
  20
240.16075
  0
VERTEX
  5
7b5
  8
Layer_0
  10
154.89966
  20
240.05647
  0
VERTEX
  5
7b6
  8
Layer_0
  10
155.26988
  20
239.94957
  0
VERTEX
  5
7b7
  8
Layer_0
  10
155.67284
  20
239.83846
  0
VERTEX
  5
7b8
  8
Layer_0
  10
156.73183
  20
239.55682
  0
VERTEX
  5
7b9
  8
Layer_0
  10
157.29291
  20
239.4025
  0
VERTEX
  5
7ba
  8
Layer_0
  10
157.7999
  20
239.25641
  0
VERTEX
  5
7bb
  8
Layer_0
  10
158.25728
  20
239.11641
  0
VERTEX
  5
7bc
  8
Layer_0
  10
158.66956
  20
238.98035
  0
VERTEX
  5
7bd
  8
Layer_0
  10
159.0412
  20
238.84601
  0
VERTEX
  5
7be
  8
Layer_0
  10
159.37674
  20
238.7113
  0
VERTEX
  5
7bf
  8
Layer_0
  10
159.68062
  20
238.57404
  0
VERTEX
  5
7c0
  8
Layer_0
  10
160.21144
  20
238.2832
  0
VERTEX
  5
7c1
  8
Layer_0
  10
160.66959
  20
237.95621
  0
VERTEX
  5
7c2
  8
Layer_0
  10
161.091
  20
237.57581
  0
VERTEX
  5
7c3
  8
Layer_0
  10
161.5116
  20
237.12473
  0
VERTEX
  5
7c4
  8
Layer_0
  10
161.84686
  20
236.71466
  0
VERTEX
  5
7c5
  8
Layer_0
  10
162.1651
  20
236.2681
  0
VERTEX
  5
7c6
  8
Layer_0
  10
162.46623
  20
235.78596
  0
VERTEX
  5
7c7
  8
Layer_0
  10
162.75018
  20
235.26913
  0
VERTEX
  5
7c8
  8
Layer_0
  10
163.01689
  20
234.71852
  0
VERTEX
  5
7c9
  8
Layer_0
  10
163.2663
  20
234.13501
  0
VERTEX
  5
7ca
  8
Layer_0
  10
163.49832
  20
233.51947
  0
VERTEX
  5
7cb
  8
Layer_0
  10
163.71292
  20
232.87283
  0
VERTEX
  5
7cc
  8
Layer_0
  10
163.91003
  20
232.19595
  0
VERTEX
  5
7cd
  8
Layer_0
  10
164.08955
  20
231.48975
  0
VERTEX
  5
7ce
  8
Layer_0
  10
164.25146
  20
230.75508
  0
VERTEX
  5
7cf
  8
Layer_0
  10
164.39568
  20
229.99289
  0
VERTEX
  5
7d0
  8
Layer_0
  10
164.52213
  20
229.20401
  0
VERTEX
  5
7d1
  8
Layer_0
  10
164.63077
  20
228.3894
  0
VERTEX
  5
7d2
  8
Layer_0
  10
164.7215
  20
227.5499
  0
VERTEX
  5
7d3
  8
Layer_0
  10
164.79428
  20
226.68643
  0
VERTEX
  5
7d4
  8
Layer_0
  10
164.84904
  20
225.7999
  0
VERTEX
  5
7d5
  8
Layer_0
  10
164.88573
  20
224.89114
  0
VERTEX
  5
7d6
  8
Layer_0
  10
164.90425
  20
223.96109
  0
VERTEX
  5
7d7
  8
Layer_0
  10
164.90457
  20
223.01062
  0
VERTEX
  5
7d8
  8
Layer_0
  10
164.88663
  20
222.04062
  0
VERTEX
  5
7d9
  8
Layer_0
  10
164.85031
  20
221.05203
  0
VERTEX
  5
7da
  8
Layer_0
  10
164.79558
  20
220.04568
  0
VERTEX
  5
7db
  8
Layer_0
  10
164.72238
  20
219.02252
  0
VERTEX
  5
7dc
  8
Layer_0
  10
164.52029
  20
216.92923
  0
VERTEX
  5
7dd
  8
Layer_0
  10
164.24353
  20
214.77928
  0
VERTEX
  5
7de
  8
Layer_0
  10
163.89156
  20
212.57983
  0
VERTEX
  5
7df
  8
Layer_0
  10
163.46388
  20
210.33803
  0
VERTEX
  5
7e0
  8
Layer_0
  10
163.134
  20
208.82523
  0
VERTEX
  5
7e1
  8
Layer_0
  10
162.77823
  20
207.36374
  0
VERTEX
  5
7e2
  8
Layer_0
  10
162.39641
  20
205.95331
  0
VERTEX
  5
7e3
  8
Layer_0
  10
161.9884
  20
204.59366
  0
VERTEX
  5
7e4
  8
Layer_0
  10
161.55408
  20
203.28442
  0
VERTEX
  5
7e5
  8
Layer_0
  10
161.09331
  20
202.02536
  0
VERTEX
  5
7e6
  8
Layer_0
  10
160.60594
  20
200.81616
  0
VERTEX
  5
7e7
  8
Layer_0
  10
160.09184
  20
199.65652
  0
VERTEX
  5
7e8
  8
Layer_0
  10
159.55087
  20
198.54614
  0
VERTEX
  5
7e9
  8
Layer_0
  10
158.98289
  20
197.48474
  0
VERTEX
  5
7ea
  8
Layer_0
  10
158.38779
  20
196.47202
  0
VERTEX
  5
7eb
  8
Layer_0
  10
157.76538
  20
195.50769
  0
VERTEX
  5
7ec
  8
Layer_0
  10
157.11555
  20
194.59143
  0
VERTEX
  5
7ed
  8
Layer_0
  10
156.43817
  20
193.72293
  0
VERTEX
  5
7ee
  8
Layer_0
  10
155.73309
  20
192.90193
  0
VERTEX
  5
7ef
  8
Layer_0
  10
155.00018
  20
192.12811
  0
VERTEX
  5
7f0
  8
Layer_0
  10
154.43896
  20
191.58963
  0
VERTEX
  5
7f1
  8
Layer_0
  10
153.88087
  20
191.10626
  0
VERTEX
  5
7f2
  8
Layer_0
  10
153.32327
  20
190.67741
  0
VERTEX
  5
7f3
  8
Layer_0
  10
152.76355
  20
190.30246
  0
VERTEX
  5
7f4
  8
Layer_0
  10
152.19905
  20
189.9808
  0
VERTEX
  5
7f5
  8
Layer_0
  10
151.62714
  20
189.71182
  0
VERTEX
  5
7f6
  8
Layer_0
  10
151.0452
  20
189.49489
  0
VERTEX
  5
7f7
  8
Layer_0
  10
150.45056
  20
189.32941
  0
VERTEX
  5
7f8
  8
Layer_0
  10
149.84062
  20
189.21475
  0
VERTEX
  5
7f9
  8
Layer_0
  10
149.21274
  20
189.15033
  0
VERTEX
  5
7fa
  8
Layer_0
  10
148.56427
  20
189.13553
  0
VERTEX
  5
7fb
  8
Layer_0
  10
147.89259
  20
189.16971
  0
VERTEX
  5
7fc
  8
Layer_0
  10
147.19507
  20
189.25229
  0
VERTEX
  5
7fd
  8
Layer_0
  10
146.46906
  20
189.38263
  0
VERTEX
  5
7fe
  8
Layer_0
  10
145.71193
  20
189.56015
  0
VERTEX
  5
7ff
  8
Layer_0
  10
144.92105
  20
189.78421
  0
VERTEX
  5
800
  8
Layer_0
  10
142.7897
  20
190.4335
  0
VERTEX
  5
801
  8
Layer_0
  10
140.56369
  20
191.10884
  0
VERTEX
  5
802
  8
Layer_0
  10
139.90521
  20
191.32333
  0
VERTEX
  5
803
  8
Layer_0
  10
139.28003
  20
191.5585
  0
VERTEX
  5
804
  8
Layer_0
  10
138.6877
  20
191.81474
  0
VERTEX
  5
805
  8
Layer_0
  10
138.12772
  20
192.09248
  0
VERTEX
  5
806
  8
Layer_0
  10
137.59962
  20
192.39218
  0
VERTEX
  5
807
  8
Layer_0
  10
137.10295
  20
192.71426
  0
VERTEX
  5
808
  8
Layer_0
  10
136.63721
  20
193.05914
  0
VERTEX
  5
809
  8
Layer_0
  10
136.20193
  20
193.42725
  0
VERTEX
  5
80a
  8
Layer_0
  10
135.79663
  20
193.819
  0
VERTEX
  5
80b
  8
Layer_0
  10
135.42088
  20
194.23485
  0
VERTEX
  5
80c
  8
Layer_0
  10
135.07416
  20
194.6752
  0
VERTEX
  5
80d
  8
Layer_0
  10
134.75601
  20
195.1405
  0
VERTEX
  5
80e
  8
Layer_0
  10
134.46594
  20
195.63116
  0
VERTEX
  5
80f
  8
Layer_0
  10
134.20349
  20
196.14764
  0
VERTEX
  5
810
  8
Layer_0
  10
133.9682
  20
196.69035
  0
VERTEX
  5
811
  8
Layer_0
  10
133.75958
  20
197.2597
  0
VERTEX
  5
812
  8
Layer_0
  10
133.42667
  20
198.33536
  0
VERTEX
  5
813
  8
Layer_0
  10
133.15775
  20
199.41473
  0
VERTEX
  5
814
  8
Layer_0
  10
133.04535
  20
199.9749
  0
VERTEX
  5
815
  8
Layer_0
  10
132.94666
  20
200.55893
  0
VERTEX
  5
816
  8
Layer_0
  10
132.8609
  20
201.17444
  0
VERTEX
  5
817
  8
Layer_0
  10
132.78732
  20
201.82906
  0
VERTEX
  5
818
  8
Layer_0
  10
132.72514
  20
202.53046
  0
VERTEX
  5
819
  8
Layer_0
  10
132.6736
  20
203.28625
  0
VERTEX
  5
81a
  8
Layer_0
  10
132.63193
  20
204.10413
  0
VERTEX
  5
81b
  8
Layer_0
  10
132.59935
  20
204.99167
  0
VERTEX
  5
81c
  8
Layer_0
  10
132.57513
  20
205.95654
  0
VERTEX
  5
81d
  8
Layer_0
  10
132.55849
  20
207.00638
  0
VERTEX
  5
81e
  8
Layer_0
  10
132.54865
  20
208.14883
  0
VERTEX
  5
81f
  8
Layer_0
  10
132.54486
  20
209.39154
  0
VERTEX
  5
820
  8
Layer_0
  10
132.55118
  20
210.89258
  0
VERTEX
  5
821
  8
Layer_0
  10
132.57361
  20
212.30771
  0
VERTEX
  5
822
  8
Layer_0
  10
132.61374
  20
213.64772
  0
VERTEX
  5
823
  8
Layer_0
  10
132.67319
  20
214.9234
  0
VERTEX
  5
824
  8
Layer_0
  10
132.75357
  20
216.14548
  0
VERTEX
  5
825
  8
Layer_0
  10
132.85645
  20
217.32472
  0
VERTEX
  5
826
  8
Layer_0
  10
132.98341
  20
218.47189
  0
VERTEX
  5
827
  8
Layer_0
  10
133.13612
  20
219.59778
  0
VERTEX
  5
828
  8
Layer_0
  10
133.31613
  20
220.71313
  0
VERTEX
  5
829
  8
Layer_0
  10
133.52502
  20
221.82874
  0
VERTEX
  5
82a
  8
Layer_0
  10
133.76443
  20
222.95535
  0
VERTEX
  5
82b
  8
Layer_0
  10
134.03593
  20
224.1037
  0
VERTEX
  5
82c
  8
Layer_0
  10
134.34114
  20
225.28458
  0
VERTEX
  5
82d
  8
Layer_0
  10
134.68163
  20
226.50876
  0
VERTEX
  5
82e
  8
Layer_0
  10
135.05901
  20
227.787
  0
VERTEX
  5
82f
  8
Layer_0
  10
135.60817
  20
229.56149
  0
VERTEX
  5
830
  8
Layer_0
  10
135.72815
  20
229.96835
  0
VERTEX
  5
831
  8
Layer_0
  10
135.83247
  20
230.34143
  0
VERTEX
  5
832
  8
Layer_0
  10
135.91887
  20
230.67152
  0
VERTEX
  5
833
  8
Layer_0
  10
135.98502
  20
230.94939
  0
VERTEX
  5
834
  8
Layer_0
  10
136.02855
  20
231.16583
  0
VERTEX
  5
835
  8
Layer_0
  10
136.04723
  20
231.31161
  0
VERTEX
  5
836
  8
Layer_0
  10
136.0387
  20
231.37752
  0
VERTEX
  5
837
  8
Layer_0
  10
136.00711
  20
231.37405
  0
VERTEX
  5
838
  8
Layer_0
  10
135.93268
  20
231.34622
  0
VERTEX
  5
839
  8
Layer_0
  10
135.81819
  20
231.29555
  0
VERTEX
  5
83a
  8
Layer_0
  10
135.66646
  20
231.22354
  0
VERTEX
  5
83b
  8
Layer_0
  10
135.48024
  20
231.13174
  0
VERTEX
  5
83c
  8
Layer_0
  10
135.2623
  20
231.0217
  0
VERTEX
  5
83d
  8
Layer_0
  10
134.74249
  20
230.75285
  0
VERTEX
  5
83e
  8
Layer_0
  10
134.1293
  20
230.42926
  0
VERTEX
  5
83f
  8
Layer_0
  10
133.44502
  20
230.06314
  0
VERTEX
  5
840
  8
Layer_0
  10
132.71193
  20
229.66669
  0
VERTEX
  5
841
  8
Layer_0
  10
131.9523
  20
229.25211
  0
VERTEX
  5
842
  8
Layer_0
  10
131.18843
  20
228.83162
  0
VERTEX
  5
843
  8
Layer_0
  10
130.44261
  20
228.41745
  0
VERTEX
  5
844
  8
Layer_0
  10
129.73709
  20
228.02179
  0
VERTEX
  5
845
  8
Layer_0
  10
129.09416
  20
227.65689
  0
VERTEX
  5
846
  8
Layer_0
  10
128.5361
  20
227.33493
  0
VERTEX
  5
847
  8
Layer_0
  10
128.08521
  20
227.06812
  0
VERTEX
  5
848
  8
Layer_0
  10
127.90691
  20
226.9592
  0
VERTEX
  5
849
  8
Layer_0
  10
127.76376
  20
226.86867
  0
VERTEX
  5
84a
  8
Layer_0
  10
127.65852
  20
226.79803
  0
VERTEX
  5
84b
  8
Layer_0
  10
127.59402
  20
226.74881
  0
VERTEX
  5
84c
  8
Layer_0
  10
127.56594
  20
226.70584
  0
VERTEX
  5
84d
  8
Layer_0
  10
127.53006
  20
226.62048
  0
VERTEX
  5
84e
  8
Layer_0
  10
127.48676
  20
226.49454
  0
VERTEX
  5
84f
  8
Layer_0
  10
127.43643
  20
226.3298
  0
VERTEX
  5
850
  8
Layer_0
  10
127.37946
  20
226.12811
  0
VERTEX
  5
851
  8
Layer_0
  10
127.31623
  20
225.89127
  0
VERTEX
  5
852
  8
Layer_0
  10
127.24713
  20
225.62112
  0
VERTEX
  5
853
  8
Layer_0
  10
127.17256
  20
225.31946
  0
VERTEX
  5
854
  8
Layer_0
  10
127.00851
  20
224.62894
  0
VERTEX
  5
855
  8
Layer_0
  10
126.82718
  20
223.83421
  0
VERTEX
  5
856
  8
Layer_0
  10
126.63167
  20
222.94989
  0
VERTEX
  5
857
  8
Layer_0
  10
126.42506
  20
221.99052
  0
VERTEX
  5
858
  8
Layer_0
  10
125.54974
  20
217.69348
  0
VERTEX
  5
859
  8
Layer_0
  10
124.74481
  20
213.3598
  0
VERTEX
  5
85a
  8
Layer_0
  10
124.06796
  20
209.27429
  0
VERTEX
  5
85b
  8
Layer_0
  10
123.46046
  20
205.19402
  0
VERTEX
  5
85c
  8
Layer_0
  10
122.92343
  20
201.12917
  0
VERTEX
  5
85d
  8
Layer_0
  10
122.45795
  20
197.08995
  0
VERTEX
  5
85e
  8
Layer_0
  10
122.06509
  20
193.08658
  0
VERTEX
  5
85f
  8
Layer_0
  10
121.74596
  20
189.12923
  0
VERTEX
  5
860
  8
Layer_0
  10
121.61438
  20
187.17101
  0
VERTEX
  5
861
  8
Layer_0
  10
121.50165
  20
185.22812
  0
VERTEX
  5
862
  8
Layer_0
  10
121.40788
  20
183.30185
  0
VERTEX
  5
863
  8
Layer_0
  10
121.33323
  20
181.39346
  0
VERTEX
  5
864
  8
Layer_0
  10
121.24086
  20
178.77246
  0
VERTEX
  5
865
  8
Layer_0
  10
121.19259
  20
177.59105
  0
VERTEX
  5
866
  8
Layer_0
  10
121.16065
  20
176.94449
  0
VERTEX
  5
867
  8
Layer_0
  10
121.12738
  20
176.39847
  0
VERTEX
  5
868
  8
Layer_0
  10
121.09148
  20
175.94244
  0
VERTEX
  5
869
  8
Layer_0
  10
121.05162
  20
175.56589
  0
VERTEX
  5
86a
  8
Layer_0
  10
121.00651
  20
175.25824
  0
VERTEX
  5
86b
  8
Layer_0
  10
120.95483
  20
175.009
  0
VERTEX
  5
86c
  8
Layer_0
  10
120.89529
  20
174.80759
  0
VERTEX
  5
86d
  8
Layer_0
  10
120.82657
  20
174.64349
  0
VERTEX
  5
86e
  8
Layer_0
  10
120.65634
  20
174.38509
  0
VERTEX
  5
86f
  8
Layer_0
  10
120.43369
  20
174.14944
  0
VERTEX
  5
870
  8
Layer_0
  10
120.13824
  20
173.90833
  0
VERTEX
  5
871
  8
Layer_0
  10
119.79184
  20
173.72014
  0
VERTEX
  5
872
  8
Layer_0
  10
119.40033
  20
173.58351
  0
VERTEX
  5
873
  8
Layer_0
  10
118.96957
  20
173.4971
  0
VERTEX
  5
874
  8
Layer_0
  10
118.50542
  20
173.45956
  0
VERTEX
  5
875
  8
Layer_0
  10
118.0137
  20
173.46956
  0
VERTEX
  5
876
  8
Layer_0
  10
117.50029
  20
173.52573
  0
VERTEX
  5
877
  8
Layer_0
  10
116.97104
  20
173.62677
  0
VERTEX
  5
878
  8
Layer_0
  10
116.43179
  20
173.7713
  0
VERTEX
  5
879
  8
Layer_0
  10
115.88839
  20
173.95798
  0
VERTEX
  5
87a
  8
Layer_0
  10
115.3467
  20
174.18547
  0
VERTEX
  5
87b
  8
Layer_0
  10
114.81257
  20
174.45242
  0
VERTEX
  5
87c
  8
Layer_0
  10
114.29184
  20
174.75749
  0
VERTEX
  5
87d
  8
Layer_0
  10
113.79037
  20
175.09933
  0
VERTEX
  5
87e
  8
Layer_0
  10
113.31403
  20
175.47661
  0
VERTEX
  5
87f
  8
Layer_0
  10
112.86864
  20
175.88797
  0
VERTEX
  5
880
  8
Layer_0
  10
112.39562
  20
176.38612
  0
VERTEX
  5
881
  8
Layer_0
  10
111.97623
  20
176.88565
  0
VERTEX
  5
882
  8
Layer_0
  10
111.60932
  20
177.39478
  0
VERTEX
  5
883
  8
Layer_0
  10
111.29373
  20
177.92175
  0
VERTEX
  5
884
  8
Layer_0
  10
111.02832
  20
178.47482
  0
VERTEX
  5
885
  8
Layer_0
  10
110.81195
  20
179.06219
  0
VERTEX
  5
886
  8
Layer_0
  10
110.64346
  20
179.69212
  0
VERTEX
  5
887
  8
Layer_0
  10
110.52172
  20
180.37285
  0
VERTEX
  5
888
  8
Layer_0
  10
110.44557
  20
181.11258
  0
VERTEX
  5
889
  8
Layer_0
  10
110.41386
  20
181.91959
  0
VERTEX
  5
88a
  8
Layer_0
  10
110.42546
  20
182.80208
  0
VERTEX
  5
88b
  8
Layer_0
  10
110.4792
  20
183.76833
  0
VERTEX
  5
88c
  8
Layer_0
  10
110.52152
  20
184.28542
  0
VERTEX
  5
88d
  8
Layer_0
  10
110.57394
  20
184.82652
  0
VERTEX
  5
88e
  8
Layer_0
  10
110.63634
  20
185.39268
  0
VERTEX
  5
88f
  8
Layer_0
  10
110.70854
  20
185.98494
  0
VERTEX
  5
890
  8
Layer_0
  10
110.79042
  20
186.60431
  0
VERTEX
  5
891
  8
Layer_0
  10
110.88184
  20
187.25179
  0
VERTEX
  5
892
  8
Layer_0
  10
110.98265
  20
187.92844
  0
VERTEX
  5
893
  8
Layer_0
  10
111.09271
  20
188.63531
  0
VERTEX
  5
894
  8
Layer_0
  10
111.19458
  20
189.30804
  0
VERTEX
  5
895
  8
Layer_0
  10
111.33232
  20
190.26445
  0
VERTEX
  5
896
  8
Layer_0
  10
111.59292
  20
192.13368
  0
VERTEX
  5
897
  8
Layer_0
  10
111.90009
  20
194.39117
  0
VERTEX
  5
898
  8
Layer_0
  10
112.34673
  20
197.74585
  0
VERTEX
  5
899
  8
Layer_0
  10
112.57227
  20
199.47092
  0
VERTEX
  5
89a
  8
Layer_0
  10
112.95965
  20
202.39929
  0
VERTEX
  5
89b
  8
Layer_0
  10
113.37024
  20
205.40802
  0
VERTEX
  5
89c
  8
Layer_0
  10
113.57889
  20
206.90591
  0
VERTEX
  5
89d
  8
Layer_0
  10
113.78693
  20
208.37994
  0
VERTEX
  5
89e
  8
Layer_0
  10
113.99221
  20
209.81546
  0
VERTEX
  5
89f
  8
Layer_0
  10
114.19259
  20
211.19778
  0
VERTEX
  5
8a0
  8
Layer_0
  10
114.38594
  20
212.51233
  0
VERTEX
  5
8a1
  8
Layer_0
  10
114.6581
  20
214.32492
  0
VERTEX
  5
8a2
  8
Layer_0
  10
114.90242
  20
215.90256
  0
VERTEX
  5
8a3
  8
Layer_0
  10
115.04625
  20
216.79933
  0
VERTEX
  5
8a4
  8
Layer_0
  10
115.17236
  20
217.55504
  0
VERTEX
  5
8a5
  8
Layer_0
  10
115.2786
  20
218.15503
  0
VERTEX
  5
8a6
  8
Layer_0
  10
115.32361
  20
218.39206
  0
VERTEX
  5
8a7
  8
Layer_0
  10
115.36284
  20
218.58467
  0
VERTEX
  5
8a8
  8
Layer_0
  10
115.40942
  20
218.86714
  0
VERTEX
  5
8a9
  8
Layer_0
  10
115.42142
  20
219.09848
  0
VERTEX
  5
8aa
  8
Layer_0
  10
115.41463
  20
219.1875
  0
VERTEX
  5
8ab
  8
Layer_0
  10
115.39943
  20
219.25478
  0
VERTEX
  5
8ac
  8
Layer_0
  10
115.37589
  20
219.29733
  0
VERTEX
  5
8ad
  8
Layer_0
  10
115.34408
  20
219.31218
  0
VERTEX
  5
8ae
  8
Layer_0
  10
115.3062
  20
219.29852
  0
VERTEX
  5
8af
  8
Layer_0
  10
115.22987
  20
219.25847
  0
VERTEX
  5
8b0
  8
Layer_0
  10
115.11718
  20
219.19336
  0
VERTEX
  5
8b1
  8
Layer_0
  10
114.9702
  20
219.10452
  0
VERTEX
  5
8b2
  8
Layer_0
  10
114.58169
  20
218.86115
  0
VERTEX
  5
8b3
  8
Layer_0
  10
114.08097
  20
218.53911
  0
VERTEX
  5
8b4
  8
Layer_0
  10
113.48468
  20
218.14923
  0
VERTEX
  5
8b5
  8
Layer_0
  10
112.80943
  20
217.7023
  0
VERTEX
  5
8b6
  8
Layer_0
  10
112.07188
  20
217.20911
  0
VERTEX
  5
8b7
  8
Layer_0
  10
110.48727
  20
216.13965
  0
VERTEX
  5
8b8
  8
Layer_0
  10
109.76105
  20
215.65584
  0
VERTEX
  5
8b9
  8
Layer_0
  10
109.10365
  20
215.22598
  0
VERTEX
  5
8ba
  8
Layer_0
  10
108.50873
  20
214.84709
  0
VERTEX
  5
8bb
  8
Layer_0
  10
107.96994
  20
214.51611
  0
VERTEX
  5
8bc
  8
Layer_0
  10
107.48095
  20
214.23003
  0
VERTEX
  5
8bd
  8
Layer_0
  10
107.03541
  20
213.98581
  0
VERTEX
  5
8be
  8
Layer_0
  10
106.62698
  20
213.78041
  0
VERTEX
  5
8bf
  8
Layer_0
  10
106.24933
  20
213.61084
  0
VERTEX
  5
8c0
  8
Layer_0
  10
105.8961
  20
213.47408
  0
VERTEX
  5
8c1
  8
Layer_0
  10
105.56097
  20
213.36707
  0
VERTEX
  5
8c2
  8
Layer_0
  10
105.23759
  20
213.2868
  0
VERTEX
  5
8c3
  8
Layer_0
  10
104.60071
  20
213.1944
  0
VERTEX
  5
8c4
  8
Layer_0
  10
103.93471
  20
213.17268
  0
VERTEX
  5
8c5
  8
Layer_0
  10
103.53557
  20
213.19247
  0
VERTEX
  5
8c6
  8
Layer_0
  10
103.13499
  20
213.24442
  0
VERTEX
  5
8c7
  8
Layer_0
  10
102.73561
  20
213.32681
  0
VERTEX
  5
8c8
  8
Layer_0
  10
102.34008
  20
213.43797
  0
VERTEX
  5
8c9
  8
Layer_0
  10
101.95105
  20
213.57623
  0
VERTEX
  5
8ca
  8
Layer_0
  10
101.57115
  20
213.73985
  0
VERTEX
  5
8cb
  8
Layer_0
  10
101.20306
  20
213.92719
  0
VERTEX
  5
8cc
  8
Layer_0
  10
100.84941
  20
214.13658
  0
VERTEX
  5
8cd
  8
Layer_0
  10
100.51286
  20
214.3663
  0
VERTEX
  5
8ce
  8
Layer_0
  10
100.19603
  20
214.61469
  0
VERTEX
  5
8cf
  8
Layer_0
  10
99.901588
  20
214.88005
  0
VERTEX
  5
8d0
  8
Layer_0
  10
99.632187
  20
215.16071
  0
VERTEX
  5
8d1
  8
Layer_0
  10
99.390457
  20
215.45496
  0
VERTEX
  5
8d2
  8
Layer_0
  10
99.179077
  20
215.76112
  0
VERTEX
  5
8d3
  8
Layer_0
  10
99.000656
  20
216.07755
  0
VERTEX
  5
8d4
  8
Layer_0
  10
98.85788
  20
216.40251
  0
VERTEX
  5
8d5
  8
Layer_0
  10
98.778786
  20
216.64516
  0
VERTEX
  5
8d6
  8
Layer_0
  10
98.726715
  20
216.88298
  0
VERTEX
  5
8d7
  8
Layer_0
  10
98.701836
  20
217.11624
  0
VERTEX
  5
8d8
  8
Layer_0
  10
98.704292
  20
217.34521
  0
VERTEX
  5
8d9
  8
Layer_0
  10
98.734261
  20
217.57016
  0
VERTEX
  5
8da
  8
Layer_0
  10
98.791901
  20
217.79138
  0
VERTEX
  5
8db
  8
Layer_0
  10
98.87738
  20
218.00914
  0
VERTEX
  5
8dc
  8
Layer_0
  10
98.990852
  20
218.22369
  0
VERTEX
  5
8dd
  8
Layer_0
  10
99.132477
  20
218.4353
  0
VERTEX
  5
8de
  8
Layer_0
  10
99.302422
  20
218.64426
  0
VERTEX
  5
8df
  8
Layer_0
  10
99.500854
  20
218.85083
  0
VERTEX
  5
8e0
  8
Layer_0
  10
99.727921
  20
219.05527
  0
VERTEX
  5
8e1
  8
Layer_0
  10
99.983803
  20
219.25786
  0
VERTEX
  5
8e2
  8
Layer_0
  10
100.26865
  20
219.45888
  0
VERTEX
  5
8e3
  8
Layer_0
  10
100.58263
  20
219.65858
  0
VERTEX
  5
8e4
  8
Layer_0
  10
100.9259
  20
219.85727
  0
VERTEX
  5
8e5
  8
Layer_0
  10
101.33883
  20
220.08762
  0
VERTEX
  5
8e6
  8
Layer_0
  10
103.11176
  20
221.09151
  0
VERTEX
  5
8e7
  8
Layer_0
  10
104.53268
  20
221.90405
  0
VERTEX
  5
8e8
  8
Layer_0
  10
105.95236
  20
222.72159
  0
VERTEX
  5
8e9
  8
Layer_0
  10
106.6631
  20
223.12845
  0
VERTEX
  5
8ea
  8
Layer_0
  10
107.38918
  20
223.53549
  0
VERTEX
  5
8eb
  8
Layer_0
  10
108.14008
  20
223.94739
  0
VERTEX
  5
8ec
  8
Layer_0
  10
108.92528
  20
224.36887
  0
VERTEX
  5
8ed
  8
Layer_0
  10
109.75423
  20
224.80455
  0
VERTEX
  5
8ee
  8
Layer_0
  10
110.63643
  20
225.25917
  0
VERTEX
  5
8ef
  8
Layer_0
  10
111.58134
  20
225.73738
  0
VERTEX
  5
8f0
  8
Layer_0
  10
112.59845
  20
226.24388
  0
VERTEX
  5
8f1
  8
Layer_0
  10
113.69722
  20
226.78334
  0
VERTEX
  5
8f2
  8
Layer_0
  10
114.88712
  20
227.36046
  0
VERTEX
  5
8f3
  8
Layer_0
  10
115.5192
  20
227.66461
  0
VERTEX
  5
8f4
  8
Layer_0
  10
116.86356
  20
228.30698
  0
VERTEX
  5
8f5
  8
Layer_0
  10
118.32275
  20
228.99869
  0
VERTEX
  5
8f6
  8
Layer_0
  10
119.90623
  20
229.74445
  0
VERTEX
  5
8f7
  8
Layer_0
  10
122.53522
  20
230.97467
  0
VERTEX
  5
8f8
  8
Layer_0
  10
127.00507
  20
233.05466
  0
VERTEX
  5
8f9
  8
Layer_0
  10
131.18526
  20
235.00444
  0
VERTEX
  5
8fa
  8
Layer_0
  10
132.87152
  20
235.79605
  0
VERTEX
  5
8fb
  8
Layer_0
  10
134.31537
  20
236.47916
  0
VERTEX
  5
8fc
  8
Layer_0
  10
135.53693
  20
237.06401
  0
VERTEX
  5
8fd
  8
Layer_0
  10
136.07063
  20
237.32278
  0
VERTEX
  5
8fe
  8
Layer_0
  10
136.5563
  20
237.56084
  0
VERTEX
  5
8ff
  8
Layer_0
  10
136.99646
  20
237.77946
  0
VERTEX
  5
900
  8
Layer_0
  10
137.39363
  20
237.97992
  0
VERTEX
  5
901
  8
Layer_0
  10
137.75031
  20
238.1635
  0
VERTEX
  5
902
  8
Layer_0
  10
138.069
  20
238.33145
  0
VERTEX
  5
903
  8
Layer_0
  10
138.35226
  20
238.48511
  0
VERTEX
  5
904
  8
Layer_0
  10
138.60257
  20
238.62573
  0
VERTEX
  5
905
  8
Layer_0
  10
138.82246
  20
238.75461
  0
VERTEX
  5
906
  8
Layer_0
  10
139.01443
  20
238.87299
  0
VERTEX
  5
907
  8
Layer_0
  10
139.181
  20
238.98218
  0
VERTEX
  5
908
  8
Layer_0
  10
139.32471
  20
239.08347
  0
VERTEX
  5
909
  8
Layer_0
  10
139.55351
  20
239.26743
  0
VERTEX
  5
90a
  8
Layer_0
  10
139.72096
  20
239.43509
  0
VERTEX
  5
90b
  8
Layer_0
  10
139.8472
  20
239.59674
  0
VERTEX
  5
90c
  8
Layer_0
  10
139.95229
  20
239.76262
  0
VERTEX
  5
90d
  8
Layer_0
  10
140.26764
  20
240.24509
  0
VERTEX
  5
90e
  8
Layer_0
  10
140.65913
  20
240.76358
  0
VERTEX
  5
90f
  8
Layer_0
  10
141.1039
  20
241.29416
  0
VERTEX
  5
910
  8
Layer_0
  10
141.57907
  20
241.81293
  0
VERTEX
  5
911
  8
Layer_0
  10
142.0618
  20
242.29596
  0
VERTEX
  5
912
  8
Layer_0
  10
142.52921
  20
242.71935
  0
VERTEX
  5
913
  8
Layer_0
  10
142.75
  20
242.9012
  0
VERTEX
  5
914
  8
Layer_0
  10
142.95842
  20
243.05917
  0
VERTEX
  5
915
  8
Layer_0
  10
143.15155
  20
243.19028
  0
VERTEX
  5
916
  8
Layer_0
  10
143.32657
  20
243.29153
  0
VERTEX
  5
917
  8
Layer_0
  10
144.00412
  20
243.59161
  0
VERTEX
  5
918
  8
Layer_0
  10
144.71626
  20
243.8138
  0
VERTEX
  5
919
  8
Layer_0
  10
145.44809
  20
243.95758
  0
VERTEX
  5
91a
  8
Layer_0
  10
146.1846
  20
244.02246
  0
VERTEX
  5
91b
  8
Layer_0
  10
146.91092
  20
244.00789
  0
VERTEX
  5
91c
  8
Layer_0
  10
147.61209
  20
243.91339
  0
VERTEX
  5
91d
  8
Layer_0
  10
148.27316
  20
243.73843
  0
VERTEX
  5
91e
  8
Layer_0
  10
148.87918
  20
243.48251
  0
SEQEND
  0
POLYLINE
  5
920
  8
Layer_0
  62
0
  70
1
  66
1
  10
0
  20
0
  30
0
  0
VERTEX
  5
920
  8
Layer_0
  10
186.71158
  20
251.29565
  0
VERTEX
  5
921
  8
Layer_0
  10
186.52524
  20
251.15958
  0
VERTEX
  5
922
  8
Layer_0
  10
186.31956
  20
250.97888
  0
VERTEX
  5
923
  8
Layer_0
  10
186.09686
  20
250.75681
  0
VERTEX
  5
924
  8
Layer_0
  10
185.85948
  20
250.49673
  0
VERTEX
  5
925
  8
Layer_0
  10
185.60971
  20
250.2019
  0
VERTEX
  5
926
  8
Layer_0
  10
185.34988
  20
249.87561
  0
VERTEX
  5
927
  8
Layer_0
  10
185.08234
  20
249.52118
  0
VERTEX
  5
928
  8
Layer_0
  10
184.80939
  20
249.14194
  0
VERTEX
  5
929
  8
Layer_0
  10
184.25653
  20
248.32207
  0
VERTEX
  5
92a
  8
Layer_0
  10
183.70993
  20
247.44244
  0
VERTEX
  5
92b
  8
Layer_0
  10
183.18811
  20
246.52942
  0
VERTEX
  5
92c
  8
Layer_0
  10
182.70969
  20
245.60939
  0
VERTEX
  5
92d
  8
Layer_0
  10
182.39523
  20
244.94574
  0
VERTEX
  5
92e
  8
Layer_0
  10
182.08643
  20
244.24312
  0
VERTEX
  5
92f
  8
Layer_0
  10
181.78331
  20
243.50183
  0
VERTEX
  5
930
  8
Layer_0
  10
181.48598
  20
242.7222
  0
VERTEX
  5
931
  8
Layer_0
  10
181.19455
  20
241.90453
  0
VERTEX
  5
932
  8
Layer_0
  10
180.90907
  20
241.04913
  0
VERTEX
  5
933
  8
Layer_0
  10
180.62968
  20
240.15634
  0
VERTEX
  5
934
  8
Layer_0
  10
180.35645
  20
239.22649
  0
VERTEX
  5
935
  8
Layer_0
  10
180.08946
  20
238.25987
  0
VERTEX
  5
936
  8
Layer_0
  10
179.82883
  20
237.25682
  0
VERTEX
  5
937
  8
Layer_0
  10
179.57462
  20
236.21767
  0
VERTEX
  5
938
  8
Layer_0
  10
179.32693
  20
235.14272
  0
VERTEX
  5
939
  8
Layer_0
  10
179.08588
  20
234.03229
  0
VERTEX
  5
93a
  8
Layer_0
  10
178.85152
  20
232.8867
  0
VERTEX
  5
93b
  8
Layer_0
  10
178.62396
  20
231.70627
  0
VERTEX
  5
93c
  8
Layer_0
  10
178.40329
  20
230.49132
  0
VERTEX
  5
93d
  8
Layer_0
  10
178.26385
  20
229.61606
  0
VERTEX
  5
93e
  8
Layer_0
  10
178.14087
  20
228.67398
  0
VERTEX
  5
93f
  8
Layer_0
  10
178.0345
  20
227.67827
  0
VERTEX
  5
940
  8
Layer_0
  10
177.94492
  20
226.64215
  0
VERTEX
  5
941
  8
Layer_0
  10
177.81667
  20
224.50137
  0
VERTEX
  5
942
  8
Layer_0
  10
177.75734
  20
222.35718
  0
VERTEX
  5
943
  8
Layer_0
  10
177.75391
  20
221.31676
  0
VERTEX
  5
944
  8
Layer_0
  10
177.76816
  20
220.31506
  0
VERTEX
  5
945
  8
Layer_0
  10
177.80025
  20
219.36525
  0
VERTEX
  5
946
  8
Layer_0
  10
177.85034
  20
218.48055
  0
VERTEX
  5
947
  8
Layer_0
  10
177.91858
  20
217.67412
  0
VERTEX
  5
948
  8
Layer_0
  10
178.00511
  20
216.95915
  0
VERTEX
  5
949
  8
Layer_0
  10
178.05528
  20
216.64011
  0
VERTEX
  5
94a
  8
Layer_0
  10
178.11011
  20
216.34886
  0
VERTEX
  5
94b
  8
Layer_0
  10
178.16957
  20
216.08708
  0
VERTEX
  5
94c
  8
Layer_0
  10
178.2337
  20
215.85641
  0
VERTEX
  5
94d
  8
Layer_0
  10
178.45938
  20
215.19827
  0
VERTEX
  5
94e
  8
Layer_0
  10
178.71191
  20
214.59146
  0
VERTEX
  5
94f
  8
Layer_0
  10
178.98978
  20
214.0369
  0
VERTEX
  5
950
  8
Layer_0
  10
179.2915
  20
213.53558
  0
VERTEX
  5
951
  8
Layer_0
  10
179.61559
  20
213.08846
  0
VERTEX
  5
952
  8
Layer_0
  10
179.96051
  20
212.69647
  0
VERTEX
  5
953
  8
Layer_0
  10
180.3248
  20
212.36058
  0
VERTEX
  5
954
  8
Layer_0
  10
180.70694
  20
212.08176
  0
VERTEX
  5
955
  8
Layer_0
  10
181.10544
  20
211.86096
  0
VERTEX
  5
956
  8
Layer_0
  10
181.51883
  20
211.69916
  0
VERTEX
  5
957
  8
Layer_0
  10
181.94556
  20
211.59729
  0
VERTEX
  5
958
  8
Layer_0
  10
182.38416
  20
211.5563
  0
VERTEX
  5
959
  8
Layer_0
  10
182.83313
  20
211.57718
  0
VERTEX
  5
95a
  8
Layer_0
  10
183.29099
  20
211.66087
  0
VERTEX
  5
95b
  8
Layer_0
  10
183.75621
  20
211.80835
  0
VERTEX
  5
95c
  8
Layer_0
  10
184.22733
  20
212.02055
  0
VERTEX
  5
95d
  8
Layer_0
  10
184.55478
  20
212.22044
  0
VERTEX
  5
95e
  8
Layer_0
  10
184.88208
  20
212.48038
  0
VERTEX
  5
95f
  8
Layer_0
  10
185.20871
  20
212.79865
  0
VERTEX
  5
960
  8
Layer_0
  10
185.53418
  20
213.17358
  0
VERTEX
  5
961
  8
Layer_0
  10
185.85802
  20
213.60349
  0
VERTEX
  5
962
  8
Layer_0
  10
186.17975
  20
214.08665
  0
VERTEX
  5
963
  8
Layer_0
  10
186.49887
  20
214.6214
  0
VERTEX
  5
964
  8
Layer_0
  10
186.81491
  20
215.20602
  0
VERTEX
  5
965
  8
Layer_0
  10
187.12737
  20
215.83884
  0
VERTEX
  5
966
  8
Layer_0
  10
187.43576
  20
216.51813
  0
VERTEX
  5
967
  8
Layer_0
  10
187.73958
  20
217.2422
  0
VERTEX
  5
968
  8
Layer_0
  10
188.03838
  20
218.0094
  0
VERTEX
  5
969
  8
Layer_0
  10
188.33163
  20
218.81799
  0
VERTEX
  5
96a
  8
Layer_0
  10
188.6189
  20
219.66631
  0
VERTEX
  5
96b
  8
Layer_0
  10
188.89966
  20
220.55263
  0
VERTEX
  5
96c
  8
Layer_0
  10
189.17343
  20
221.47528
  0
VERTEX
  5
96d
  8
Layer_0
  10
189.43973
  20
222.43256
  0
VERTEX
  5
96e
  8
Layer_0
  10
189.69806
  20
223.42278
  0
VERTEX
  5
96f
  8
Layer_0
  10
189.94795
  20
224.44423
  0
VERTEX
  5
970
  8
Layer_0
  10
190.1889
  20
225.49522
  0
VERTEX
  5
971
  8
Layer_0
  10
190.42044
  20
226.57407
  0
VERTEX
  5
972
  8
Layer_0
  10
190.64207
  20
227.67906
  0
VERTEX
  5
973
  8
Layer_0
  10
190.8533
  20
228.80853
  0
VERTEX
  5
974
  8
Layer_0
  10
191.05365
  20
229.96075
  0
VERTEX
  5
975
  8
Layer_0
  10
191.41975
  20
232.32672
  0
VERTEX
  5
976
  8
Layer_0
  10
191.7365
  20
234.76343
  0
VERTEX
  5
977
  8
Layer_0
  10
191.99997
  20
237.25729
  0
VERTEX
  5
978
  8
Layer_0
  10
192.2063
  20
239.79482
  0
VERTEX
  5
979
  8
Layer_0
  10
192.28049
  20
241.03699
  0
VERTEX
  5
97a
  8
Layer_0
  10
192.3252
  20
242.19629
  0
VERTEX
  5
97b
  8
Layer_0
  10
192.33974
  20
243.27557
  0
VERTEX
  5
97c
  8
Layer_0
  10
192.32343
  20
244.27774
  0
VERTEX
  5
97d
  8
Layer_0
  10
192.27557
  20
245.20566
  0
VERTEX
  5
97e
  8
Layer_0
  10
192.1955
  20
246.06215
  0
VERTEX
  5
97f
  8
Layer_0
  10
192.08255
  20
246.85013
  0
VERTEX
  5
980
  8
Layer_0
  10
191.936
  20
247.57246
  0
VERTEX
  5
981
  8
Layer_0
  10
191.75522
  20
248.23203
  0
VERTEX
  5
982
  8
Layer_0
  10
191.53949
  20
248.83165
  0
VERTEX
  5
983
  8
Layer_0
  10
191.28818
  20
249.37424
  0
VERTEX
  5
984
  8
Layer_0
  10
191.00055
  20
249.86267
  0
VERTEX
  5
985
  8
Layer_0
  10
190.67595
  20
250.2998
  0
VERTEX
  5
986
  8
Layer_0
  10
190.31371
  20
250.68851
  0
VERTEX
  5
987
  8
Layer_0
  10
189.91313
  20
251.03165
  0
VERTEX
  5
988
  8
Layer_0
  10
189.47353
  20
251.33209
  0
VERTEX
  5
989
  8
Layer_0
  10
189.08951
  20
251.54716
  0
VERTEX
  5
98a
  8
Layer_0
  10
188.73802
  20
251.69977
  0
VERTEX
  5
98b
  8
Layer_0
  10
188.40836
  20
251.78975
  0
VERTEX
  5
98c
  8
Layer_0
  10
188.08975
  20
251.817
  0
VERTEX
  5
98d
  8
Layer_0
  10
187.77151
  20
251.78136
  0
VERTEX
  5
98e
  8
Layer_0
  10
187.4429
  20
251.68268
  0
VERTEX
  5
98f
  8
Layer_0
  10
187.09317
  20
251.52083
  0
VERTEX
  5
990
  8
Layer_0
  10
186.71158
  20
251.29565
  0
SEQEND
  0
POLYLINE
  5
992
  8
Layer_0
  62
0
  70
1
  66
1
  10
0
  20
0
  30
0
  0
VERTEX
  5
992
  8
Layer_0
  10
282.27512
  20
230.45271
  0
VERTEX
  5
993
  8
Layer_0
  10
281.86719
  20
230.17145
  0
VERTEX
  5
994
  8
Layer_0
  10
281.43732
  20
229.82687
  0
VERTEX
  5
995
  8
Layer_0
  10
280.98853
  20
229.4231
  0
VERTEX
  5
996
  8
Layer_0
  10
280.52393
  20
228.96416
  0
VERTEX
  5
997
  8
Layer_0
  10
280.0466
  20
228.45413
  0
VERTEX
  5
998
  8
Layer_0
  10
279.55963
  20
227.89708
  0
VERTEX
  5
999
  8
Layer_0
  10
279.0661
  20
227.29707
  0
VERTEX
  5
99a
  8
Layer_0
  10
278.56909
  20
226.65817
  0
VERTEX
  5
99b
  8
Layer_0
  10
278.07166
  20
225.98445
  0
VERTEX
  5
99c
  8
Layer_0
  10
277.5769
  20
225.27997
  0
VERTEX
  5
99d
  8
Layer_0
  10
277.08789
  20
224.5488
  0
VERTEX
  5
99e
  8
Layer_0
  10
276.6077
  20
223.79501
  0
VERTEX
  5
99f
  8
Layer_0
  10
275.68619
  20
222.23582
  0
VERTEX
  5
9a0
  8
Layer_0
  10
274.83698
  20
220.63493
  0
VERTEX
  5
9a1
  8
Layer_0
  10
274.2767
  20
219.47055
  0
VERTEX
  5
9a2
  8
Layer_0
  10
273.75317
  20
218.29698
  0
VERTEX
  5
9a3
  8
Layer_0
  10
273.26855
  20
217.12381
  0
VERTEX
  5
9a4
  8
Layer_0
  10
272.8251
  20
215.96057
  0
VERTEX
  5
9a5
  8
Layer_0
  10
272.42496
  20
214.81683
  0
VERTEX
  5
9a6
  8
Layer_0
  10
272.07037
  20
213.70218
  0
VERTEX
  5
9a7
  8
Layer_0
  10
271.76355
  20
212.62613
  0
VERTEX
  5
9a8
  8
Layer_0
  10
271.50665
  20
211.59828
  0
VERTEX
  5
9a9
  8
Layer_0
  10
271.30194
  20
210.6282
  0
VERTEX
  5
9aa
  8
Layer_0
  10
271.15161
  20
209.72542
  0
VERTEX
  5
9ab
  8
Layer_0
  10
271.09753
  20
209.30226
  0
VERTEX
  5
9ac
  8
Layer_0
  10
271.05792
  20
208.89952
  0
VERTEX
  5
9ad
  8
Layer_0
  10
271.03296
  20
208.51839
  0
VERTEX
  5
9ae
  8
Layer_0
  10
271.02298
  20
208.16006
  0
VERTEX
  5
9af
  8
Layer_0
  10
271.02823
  20
207.82574
  0
VERTEX
  5
9b0
  8
Layer_0
  10
271.04907
  20
207.51662
  0
VERTEX
  5
9b1
  8
Layer_0
  10
271.08569
  20
207.23389
  0
VERTEX
  5
9b2
  8
Layer_0
  10
271.13837
  20
206.97873
  0
VERTEX
  5
9b3
  8
Layer_0
  10
271.20743
  20
206.75238
  0
VERTEX
  5
9b4
  8
Layer_0
  10
271.29315
  20
206.556
  0
VERTEX
  5
9b5
  8
Layer_0
  10
271.39575
  20
206.39078
  0
VERTEX
  5
9b6
  8
Layer_0
  10
271.5155
  20
206.25793
  0
VERTEX
  5
9b7
  8
Layer_0
  10
271.7608
  20
206.05943
  0
VERTEX
  5
9b8
  8
Layer_0
  10
271.99643
  20
205.92654
  0
VERTEX
  5
9b9
  8
Layer_0
  10
272.23676
  20
205.86139
  0
VERTEX
  5
9ba
  8
Layer_0
  10
272.496
  20
205.86603
  0
VERTEX
  5
9bb
  8
Layer_0
  10
272.78845
  20
205.9426
  0
VERTEX
  5
9bc
  8
Layer_0
  10
273.12836
  20
206.09319
  0
VERTEX
  5
9bd
  8
Layer_0
  10
273.32056
  20
206.19688
  0
VERTEX
  5
9be
  8
Layer_0
  10
273.53003
  20
206.31989
  0
VERTEX
  5
9bf
  8
Layer_0
  10
273.75848
  20
206.46243
  0
VERTEX
  5
9c0
  8
Layer_0
  10
274.00769
  20
206.6248
  0
VERTEX
  5
9c1
  8
Layer_0
  10
274.45679
  20
206.95047
  0
VERTEX
  5
9c2
  8
Layer_0
  10
274.92209
  20
207.34143
  0
VERTEX
  5
9c3
  8
Layer_0
  10
275.40143
  20
207.79358
  0
VERTEX
  5
9c4
  8
Layer_0
  10
275.89267
  20
208.3028
  0
VERTEX
  5
9c5
  8
Layer_0
  10
276.39365
  20
208.86494
  0
VERTEX
  5
9c6
  8
Layer_0
  10
276.90219
  20
209.47595
  0
VERTEX
  5
9c7
  8
Layer_0
  10
277.4162
  20
210.13167
  0
VERTEX
  5
9c8
  8
Layer_0
  10
277.93347
  20
210.82797
  0
VERTEX
  5
9c9
  8
Layer_0
  10
278.45184
  20
211.56076
  0
VERTEX
  5
9ca
  8
Layer_0
  10
278.96918
  20
212.3259
  0
VERTEX
  5
9cb
  8
Layer_0
  10
279.48328
  20
213.11929
  0
VERTEX
  5
9cc
  8
Layer_0
  10
279.99207
  20
213.9368
  0
VERTEX
  5
9cd
  8
Layer_0
  10
280.98492
  20
215.62769
  0
VERTEX
  5
9ce
  8
Layer_0
  10
281.93051
  20
217.36566
  0
VERTEX
  5
9cf
  8
Layer_0
  10
282.81158
  20
219.11774
  0
VERTEX
  5
9d0
  8
Layer_0
  10
283.6109
  20
220.85098
  0
VERTEX
  5
9d1
  8
Layer_0
  10
283.97449
  20
221.70026
  0
VERTEX
  5
9d2
  8
Layer_0
  10
284.31119
  20
222.53246
  0
VERTEX
  5
9d3
  8
Layer_0
  10
284.6188
  20
223.34348
  0
VERTEX
  5
9d4
  8
Layer_0
  10
284.8952
  20
224.12923
  0
VERTEX
  5
9d5
  8
Layer_0
  10
285.13824
  20
224.88556
  0
VERTEX
  5
9d6
  8
Layer_0
  10
285.34573
  20
225.60831
  0
VERTEX
  5
9d7
  8
Layer_0
  10
285.51553
  20
226.29343
  0
VERTEX
  5
9d8
  8
Layer_0
  10
285.64551
  20
226.93677
  0
VERTEX
  5
9d9
  8
Layer_0
  10
285.73346
  20
227.53424
  0
VERTEX
  5
9da
  8
Layer_0
  10
285.77728
  20
228.08167
  0
VERTEX
  5
9db
  8
Layer_0
  10
285.77484
  20
228.57498
  0
VERTEX
  5
9dc
  8
Layer_0
  10
285.72388
  20
229.01006
  0
VERTEX
  5
9dd
  8
Layer_0
  10
285.64642
  20
229.33786
  0
VERTEX
  5
9de
  8
Layer_0
  10
285.54343
  20
229.63698
  0
VERTEX
  5
9df
  8
Layer_0
  10
285.41635
  20
229.90677
  0
VERTEX
  5
9e0
  8
Layer_0
  10
285.26675
  20
230.14659
  0
VERTEX
  5
9e1
  8
Layer_0
  10
285.09619
  20
230.35579
  0
VERTEX
  5
9e2
  8
Layer_0
  10
284.90619
  20
230.53374
  0
VERTEX
  5
9e3
  8
Layer_0
  10
284.69827
  20
230.67978
  0
VERTEX
  5
9e4
  8
Layer_0
  10
284.47403
  20
230.79329
  0
VERTEX
  5
9e5
  8
Layer_0
  10
284.23495
  20
230.8736
  0
VERTEX
  5
9e6
  8
Layer_0
  10
283.98254
  20
230.92009
  0
VERTEX
  5
9e7
  8
Layer_0
  10
283.71838
  20
230.9321
  0
VERTEX
  5
9e8
  8
Layer_0
  10
283.44403
  20
230.90903
  0
VERTEX
  5
9e9
  8
Layer_0
  10
283.16098
  20
230.85019
  0
VERTEX
  5
9ea
  8
Layer_0
  10
282.87079
  20
230.75496
  0
VERTEX
  5
9eb
  8
Layer_0
  10
282.57501
  20
230.62268
  0
VERTEX
  5
9ec
  8
Layer_0
  10
282.27512
  20
230.45271
  0
SEQEND
  0
POLYLINE
  5
9ee
  8
Layer_0
  62
0
  70
1
  66
1
  10
0
  20
0
  30
0
  0
VERTEX
  5
9ee
  8
Layer_0
  10
294.1676
  20
223.37779
  0
VERTEX
  5
9ef
  8
Layer_0
  10
293.94061
  20
222.41431
  0
VERTEX
  5
9f0
  8
Layer_0
  10
293.69629
  20
221.46884
  0
VERTEX
  5
9f1
  8
Layer_0
  10
293.43469
  20
220.54153
  0
VERTEX
  5
9f2
  8
Layer_0
  10
293.15598
  20
219.63254
  0
VERTEX
  5
9f3
  8
Layer_0
  10
292.86023
  20
218.74194
  0
VERTEX
  5
9f4
  8
Layer_0
  10
292.54745
  20
217.86989
  0
VERTEX
  5
9f5
  8
Layer_0
  10
292.21783
  20
217.01651
  0
VERTEX
  5
9f6
  8
Layer_0
  10
291.87143
  20
216.18195
  0
VERTEX
  5
9f7
  8
Layer_0
  10
291.50836
  20
215.36633
  0
VERTEX
  5
9f8
  8
Layer_0
  10
291.12869
  20
214.56976
  0
VERTEX
  5
9f9
  8
Layer_0
  10
290.73251
  20
213.7924
  0
VERTEX
  5
9fa
  8
Layer_0
  10
290.31995
  20
213.03436
  0
VERTEX
  5
9fb
  8
Layer_0
  10
289.89108
  20
212.29578
  0
VERTEX
  5
9fc
  8
Layer_0
  10
289.44598
  20
211.57678
  0
VERTEX
  5
9fd
  8
Layer_0
  10
288.9848
  20
210.8775
  0
VERTEX
  5
9fe
  8
Layer_0
  10
288.50757
  20
210.19806
  0
VERTEX
  5
9ff
  8
Layer_0
  10
288.0144
  20
209.5386
  0
VERTEX
  5
a00
  8
Layer_0
  10
287.50543
  20
208.89926
  0
VERTEX
  5
a01
  8
Layer_0
  10
286.98068
  20
208.28015
  0
VERTEX
  5
a02
  8
Layer_0
  10
286.44031
  20
207.68141
  0
VERTEX
  5
a03
  8
Layer_0
  10
285.8844
  20
207.10316
  0
VERTEX
  5
a04
  8
Layer_0
  10
285.31299
  20
206.54556
  0
VERTEX
  5
a05
  8
Layer_0
  10
284.72626
  20
206.0087
  0
VERTEX
  5
a06
  8
Layer_0
  10
284.12427
  20
205.49274
  0
VERTEX
  5
a07
  8
Layer_0
  10
283.50708
  20
204.99779
  0
VERTEX
  5
a08
  8
Layer_0
  10
282.87482
  20
204.52397
  0
VERTEX
  5
a09
  8
Layer_0
  10
282.22757
  20
204.07144
  0
VERTEX
  5
a0a
  8
Layer_0
  10
281.56543
  20
203.64032
  0
VERTEX
  5
a0b
  8
Layer_0
  10
280.88849
  20
203.23074
  0
VERTEX
  5
a0c
  8
Layer_0
  10
280.19687
  20
202.84282
  0
VERTEX
  5
a0d
  8
Layer_0
  10
279.4906
  20
202.47672
  0
VERTEX
  5
a0e
  8
Layer_0
  10
278.76984
  20
202.13252
  0
VERTEX
  5
a0f
  8
Layer_0
  10
278.23053
  20
201.87009
  0
VERTEX
  5
a10
  8
Layer_0
  10
277.78891
  20
201.62543
  0
VERTEX
  5
a11
  8
Layer_0
  10
277.61896
  20
201.51831
  0
VERTEX
  5
a12
  8
Layer_0
  10
277.49051
  20
201.4259
  0
VERTEX
  5
a13
  8
Layer_0
  10
277.40927
  20
201.35161
  0
VERTEX
  5
a14
  8
Layer_0
  10
277.38092
  20
201.29886
  0
VERTEX
  5
a15
  8
Layer_0
  10
277.40836
  20
201.2291
  0
VERTEX
  5
a16
  8
Layer_0
  10
277.48691
  20
201.10602
  0
VERTEX
  5
a17
  8
Layer_0
  10
277.61111
  20
200.93648
  0
VERTEX
  5
a18
  8
Layer_0
  10
277.77545
  20
200.72734
  0
VERTEX
  5
a19
  8
Layer_0
  10
277.97443
  20
200.4854
  0
VERTEX
  5
a1a
  8
Layer_0
  10
278.20251
  20
200.21753
  0
VERTEX
  5
a1b
  8
Layer_0
  10
278.45419
  20
199.93054
  0
VERTEX
  5
a1c
  8
Layer_0
  10
278.724
  20
199.6313
  0
VERTEX
  5
a1d
  8
Layer_0
  10
279.29907
  20
199.03592
  0
VERTEX
  5
a1e
  8
Layer_0
  10
279.91132
  20
198.46606
  0
VERTEX
  5
a1f
  8
Layer_0
  10
280.55728
  20
197.9234
  0
VERTEX
  5
a20
  8
Layer_0
  10
281.23346
  20
197.40958
  0
VERTEX
  5
a21
  8
Layer_0
  10
281.93637
  20
196.92621
  0
VERTEX
  5
a22
  8
Layer_0
  10
282.6626
  20
196.47498
  0
VERTEX
  5
a23
  8
Layer_0
  10
283.40863
  20
196.05746
  0
VERTEX
  5
a24
  8
Layer_0
  10
284.17099
  20
195.67538
  0
VERTEX
  5
a25
  8
Layer_0
  10
284.9462
  20
195.33034
  0
VERTEX
  5
a26
  8
Layer_0
  10
285.73083
  20
195.02397
  0
VERTEX
  5
a27
  8
Layer_0
  10
286.52139
  20
194.75792
  0
VERTEX
  5
a28
  8
Layer_0
  10
287.31439
  20
194.53384
  0
VERTEX
  5
a29
  8
Layer_0
  10
288.10638
  20
194.35336
  0
VERTEX
  5
a2a
  8
Layer_0
  10
288.89386
  20
194.21814
  0
VERTEX
  5
a2b
  8
Layer_0
  10
289.67334
  20
194.12979
  0
VERTEX
  5
a2c
  8
Layer_0
  10
290.44144
  20
194.09
  0
VERTEX
  5
a2d
  8
Layer_0
  10
291.13989
  20
194.07805
  0
VERTEX
  5
a2e
  8
Layer_0
  10
291.42413
  20
194.07608
  0
VERTEX
  5
a2f
  8
Layer_0
  10
291.66916
  20
194.07794
  0
VERTEX
  5
a30
  8
Layer_0
  10
291.87805
  20
194.08447
  0
VERTEX
  5
a31
  8
Layer_0
  10
292.05392
  20
194.09653
  0
VERTEX
  5
a32
  8
Layer_0
  10
292.1998
  20
194.11497
  0
VERTEX
  5
a33
  8
Layer_0
  10
292.31882
  20
194.14064
  0
VERTEX
  5
a34
  8
Layer_0
  10
292.48846
  20
194.2171
  0
VERTEX
  5
a35
  8
Layer_0
  10
292.58752
  20
194.33275
  0
VERTEX
  5
a36
  8
Layer_0
  10
292.64066
  20
194.49445
  0
VERTEX
  5
a37
  8
Layer_0
  10
292.67245
  20
194.70901
  0
VERTEX
  5
a38
  8
Layer_0
  10
292.69632
  20
194.85767
  0
VERTEX
  5
a39
  8
Layer_0
  10
292.73648
  20
195.04726
  0
VERTEX
  5
a3a
  8
Layer_0
  10
292.79227
  20
195.27563
  0
VERTEX
  5
a3b
  8
Layer_0
  10
292.86288
  20
195.54057
  0
VERTEX
  5
a3c
  8
Layer_0
  10
292.94751
  20
195.83994
  0
VERTEX
  5
a3d
  8
Layer_0
  10
293.04547
  20
196.17151
  0
VERTEX
  5
a3e
  8
Layer_0
  10
293.15588
  20
196.53314
  0
VERTEX
  5
a3f
  8
Layer_0
  10
293.27808
  20
196.92267
  0
VERTEX
  5
a40
  8
Layer_0
  10
293.5545
  20
197.77658
  0
VERTEX
  5
a41
  8
Layer_0
  10
293.86865
  20
198.71582
  0
VERTEX
  5
a42
  8
Layer_0
  10
294.21423
  20
199.72298
  0
VERTEX
  5
a43
  8
Layer_0
  10
294.58514
  20
200.78056
  0
VERTEX
  5
a44
  8
Layer_0
  10
295.37823
  20
202.97737
  0
VERTEX
  5
a45
  8
Layer_0
  10
296.19843
  20
205.16678
  0
VERTEX
  5
a46
  8
Layer_0
  10
296.60327
  20
206.21512
  0
VERTEX
  5
a47
  8
Layer_0
  10
296.99634
  20
207.20929
  0
VERTEX
  5
a48
  8
Layer_0
  10
297.37152
  20
208.13187
  0
VERTEX
  5
a49
  8
Layer_0
  10
297.7226
  20
208.96541
  0
VERTEX
  5
a4a
  8
Layer_0
  10
299.58527
  20
213.29495
  0
VERTEX
  5
a4b
  8
Layer_0
  10
297.04034
  20
218.61838
  0
VERTEX
  5
a4c
  8
Layer_0
  10
296.04602
  20
220.69305
  0
VERTEX
  5
a4d
  8
Layer_0
  10
295.21991
  20
222.40665
  0
VERTEX
  5
a4e
  8
Layer_0
  10
294.55499
  20
223.76991
  0
VERTEX
  5
a4f
  8
Layer_0
  10
294.43793
  20
224.00162
  0
VERTEX
  5
a50
  8
Layer_0
  10
294.41669
  20
224.03915
  0
VERTEX
  5
a51
  8
Layer_0
  10
294.3974
  20
224.04321
  0
VERTEX
  5
a52
  8
Layer_0
  10
294.37268
  20
224.01709
  0
VERTEX
  5
a53
  8
Layer_0
  10
294.34357
  20
223.96347
  0
VERTEX
  5
a54
  8
Layer_0
  10
294.31104
  20
223.88504
  0
VERTEX
  5
a55
  8
Layer_0
  10
294.23993
  20
223.6647
  0
VERTEX
  5
a56
  8
Layer_0
  10
294.1676
  20
223.37779
  0
SEQEND
  0
POLYLINE
  5
a58
  8
Layer_0
  62
0
  70
1
  66
1
  10
0
  20
0
  30
0
  0
VERTEX
  5
a58
  8
Layer_0
  10
238.55888
  20
208.0192
  0
VERTEX
  5
a59
  8
Layer_0
  10
238.52353
  20
207.89037
  0
VERTEX
  5
a5a
  8
Layer_0
  10
238.24782
  20
206.93047
  0
VERTEX
  5
a5b
  8
Layer_0
  10
237.38869
  20
204.01541
  0
VERTEX
  5
a5c
  8
Layer_0
  10
236.7827
  20
201.98415
  0
VERTEX
  5
a5d
  8
Layer_0
  10
236.62483
  20
201.4505
  0
VERTEX
  5
a5e
  8
Layer_0
  10
236.45187
  20
200.85364
  0
VERTEX
  5
a5f
  8
Layer_0
  10
236.2652
  20
200.19885
  0
VERTEX
  5
a60
  8
Layer_0
  10
236.06613
  20
199.49141
  0
VERTEX
  5
a61
  8
Layer_0
  10
235.63635
  20
197.93947
  0
VERTEX
  5
a62
  8
Layer_0
  10
235.17345
  20
196.23987
  0
VERTEX
  5
a63
  8
Layer_0
  10
234.19171
  20
192.56584
  0
VERTEX
  5
a64
  8
Layer_0
  10
233.20804
  20
188.80566
  0
VERTEX
  5
a65
  8
Layer_0
  10
232.74266
  20
186.99835
  0
VERTEX
  5
a66
  8
Layer_0
  10
232.30943
  20
185.29562
  0
VERTEX
  5
a67
  8
Layer_0
  10
231.91927
  20
183.73952
  0
VERTEX
  5
a68
  8
Layer_0
  10
231.58302
  20
182.37207
  0
VERTEX
  5
a69
  8
Layer_0
  10
231.43854
  20
181.77222
  0
VERTEX
  5
a6a
  8
Layer_0
  10
231.31158
  20
181.23531
  0
VERTEX
  5
a6b
  8
Layer_0
  10
231.20358
  20
180.76657
  0
VERTEX
  5
a6c
  8
Layer_0
  10
231.11586
  20
180.37129
  0
VERTEX
  5
a6d
  8
Layer_0
  10
231.04979
  20
180.05469
  0
VERTEX
  5
a6e
  8
Layer_0
  10
231.00671
  20
179.82205
  0
VERTEX
  5
a6f
  8
Layer_0
  10
230.98801
  20
179.67862
  0
VERTEX
  5
a70
  8
Layer_0
  10
230.99504
  20
179.62964
  0
VERTEX
  5
a71
  8
Layer_0
  10
231.05469
  20
179.65833
  0
VERTEX
  5
a72
  8
Layer_0
  10
231.17575
  20
179.74055
  0
VERTEX
  5
a73
  8
Layer_0
  10
231.35083
  20
179.87054
  0
VERTEX
  5
a74
  8
Layer_0
  10
231.57263
  20
180.04256
  0
VERTEX
  5
a75
  8
Layer_0
  10
231.83382
  20
180.25081
  0
VERTEX
  5
a76
  8
Layer_0
  10
232.12711
  20
180.48952
  0
VERTEX
  5
a77
  8
Layer_0
  10
232.44513
  20
180.75293
  0
VERTEX
  5
a78
  8
Layer_0
  10
232.97089
  20
181.19473
  0
VERTEX
  5
a79
  8
Layer_0
  10
233.19803
  20
181.38155
  0
VERTEX
  5
a7a
  8
Layer_0
  10
233.75092
  20
181.82803
  0
VERTEX
  5
a7b
  8
Layer_0
  10
234.41551
  20
182.35617
  0
VERTEX
  5
a7c
  8
Layer_0
  10
235.168
  20
182.94736
  0
VERTEX
  5
a7d
  8
Layer_0
  10
236.84152
  20
184.24448
  0
VERTEX
  5
a7e
  8
Layer_0
  10
239.41356
  20
186.20547
  0
VERTEX
  5
a7f
  8
Layer_0
  10
240.19009
  20
186.80988
  0
VERTEX
  5
a80
  8
Layer_0
  10
240.55211
  20
187.09624
  0
VERTEX
  5
a81
  8
Layer_0
  10
240.8938
  20
187.36969
  0
VERTEX
  5
a82
  8
Layer_0
  10
241.21303
  20
187.62848
  0
VERTEX
  5
a83
  8
Layer_0
  10
241.50766
  20
187.87082
  0
VERTEX
  5
a84
  8
Layer_0
  10
241.77559
  20
188.09497
  0
VERTEX
  5
a85
  8
Layer_0
  10
242.01468
  20
188.29916
  0
VERTEX
  5
a86
  8
Layer_0
  10
242.22282
  20
188.48163
  0
VERTEX
  5
a87
  8
Layer_0
  10
242.39789
  20
188.64063
  0
VERTEX
  5
a88
  8
Layer_0
  10
242.53775
  20
188.77437
  0
VERTEX
  5
a89
  8
Layer_0
  10
242.64027
  20
188.88112
  0
VERTEX
  5
a8a
  8
Layer_0
  10
242.70335
  20
188.95908
  0
VERTEX
  5
a8b
  8
Layer_0
  10
242.72485
  20
189.00655
  0
VERTEX
  5
a8c
  8
Layer_0
  10
242.71521
  20
189.18915
  0
VERTEX
  5
a8d
  8
Layer_0
  10
242.6871
  20
189.46265
  0
VERTEX
  5
a8e
  8
Layer_0
  10
242.64166
  20
189.82077
  0
VERTEX
  5
a8f
  8
Layer_0
  10
242.58005
  20
190.25723
  0
VERTEX
  5
a90
  8
Layer_0
  10
242.50346
  20
190.76578
  0
VERTEX
  5
a91
  8
Layer_0
  10
242.41306
  20
191.34009
  0
VERTEX
  5
a92
  8
Layer_0
  10
242.31
  20
191.97394
  0
VERTEX
  5
a93
  8
Layer_0
  10
242.19545
  20
192.66104
  0
VERTEX
  5
a94
  8
Layer_0
  10
242.07059
  20
193.39511
  0
VERTEX
  5
a95
  8
Layer_0
  10
241.93658
  20
194.16989
  0
VERTEX
  5
a96
  8
Layer_0
  10
241.64581
  20
195.81644
  0
VERTEX
  5
a97
  8
Layer_0
  10
241.33249
  20
197.55048
  0
VERTEX
  5
a98
  8
Layer_0
  10
241.00589
  20
199.32184
  0
VERTEX
  5
a99
  8
Layer_0
  10
240.67542
  20
201.08032
  0
VERTEX
  5
a9a
  8
Layer_0
  10
240.3504
  20
202.77574
  0
VERTEX
  5
a9b
  8
Layer_0
  10
240.04019
  20
204.35788
  0
VERTEX
  5
a9c
  8
Layer_0
  10
239.89354
  20
205.09079
  0
VERTEX
  5
a9d
  8
Layer_0
  10
239.7541
  20
205.77657
  0
VERTEX
  5
a9e
  8
Layer_0
  10
239.62305
  20
206.40894
  0
VERTEX
  5
a9f
  8
Layer_0
  10
239.50153
  20
206.9816
  0
VERTEX
  5
aa0
  8
Layer_0
  10
239.39069
  20
207.4883
  0
VERTEX
  5
aa1
  8
Layer_0
  10
239.29175
  20
207.92279
  0
VERTEX
  5
aa2
  8
Layer_0
  10
239.20584
  20
208.27875
  0
VERTEX
  5
aa3
  8
Layer_0
  10
239.13416
  20
208.54993
  0
VERTEX
  5
aa4
  8
Layer_0
  10
239.07784
  20
208.73004
  0
VERTEX
  5
aa5
  8
Layer_0
  10
239.03807
  20
208.81284
  0
VERTEX
  5
aa6
  8
Layer_0
  10
238.99062
  20
208.83542
  0
VERTEX
  5
aa7
  8
Layer_0
  10
238.93568
  20
208.81671
  0
VERTEX
  5
aa8
  8
Layer_0
  10
238.87523
  20
208.75995
  0
VERTEX
  5
aa9
  8
Layer_0
  10
238.81122
  20
208.66838
  0
VERTEX
  5
aaa
  8
Layer_0
  10
238.74561
  20
208.54526
  0
VERTEX
  5
aab
  8
Layer_0
  10
238.68037
  20
208.39386
  0
VERTEX
  5
aac
  8
Layer_0
  10
238.61748
  20
208.21741
  0
VERTEX
  5
aad
  8
Layer_0
  10
238.55888
  20
208.0192
  0
SEQEND
  0
POLYLINE
  5
aaf
  8
Layer_0
  62
0
  70
1
  66
1
  10
0
  20
0
  30
0
  0
VERTEX
  5
aaf
  8
Layer_0
  10
208.86241
  20
195.58325
  0
VERTEX
  5
ab0
  8
Layer_0
  10
208.67363
  20
195.49109
  0
VERTEX
  5
ab1
  8
Layer_0
  10
208.44087
  20
195.3367
  0
VERTEX
  5
ab2
  8
Layer_0
  10
208.1694
  20
195.1257
  0
VERTEX
  5
ab3
  8
Layer_0
  10
207.86453
  20
194.86378
  0
VERTEX
  5
ab4
  8
Layer_0
  10
207.53146
  20
194.55664
  0
VERTEX
  5
ab5
  8
Layer_0
  10
207.17545
  20
194.20993
  0
VERTEX
  5
ab6
  8
Layer_0
  10
206.8018
  20
193.82933
  0
VERTEX
  5
ab7
  8
Layer_0
  10
206.41577
  20
193.4205
  0
VERTEX
  5
ab8
  8
Layer_0
  10
205.62755
  20
192.54089
  0
VERTEX
  5
ab9
  8
Layer_0
  10
204.85287
  20
191.61649
  0
VERTEX
  5
aba
  8
Layer_0
  10
204.4838
  20
191.15167
  0
VERTEX
  5
abb
  8
Layer_0
  10
204.13387
  20
190.69266
  0
VERTEX
  5
abc
  8
Layer_0
  10
203.80836
  20
190.24516
  0
VERTEX
  5
abd
  8
Layer_0
  10
203.51257
  20
189.81482
  0
VERTEX
  5
abe
  8
Layer_0
  10
202.52155
  20
188.26306
  0
VERTEX
  5
abf
  8
Layer_0
  10
201.62253
  20
186.72432
  0
VERTEX
  5
ac0
  8
Layer_0
  10
200.81036
  20
185.18701
  0
VERTEX
  5
ac1
  8
Layer_0
  10
200.07993
  20
183.63954
  0
VERTEX
  5
ac2
  8
Layer_0
  10
199.42604
  20
182.07033
  0
VERTEX
  5
ac3
  8
Layer_0
  10
198.84358
  20
180.4678
  0
VERTEX
  5
ac4
  8
Layer_0
  10
198.32739
  20
178.82036
  0
VERTEX
  5
ac5
  8
Layer_0
  10
197.87234
  20
177.11642
  0
VERTEX
  5
ac6
  8
Layer_0
  10
197.62015
  20
175.96967
  0
VERTEX
  5
ac7
  8
Layer_0
  10
197.41357
  20
174.80296
  0
VERTEX
  5
ac8
  8
Layer_0
  10
197.33405
  20
174.25479
  0
VERTEX
  5
ac9
  8
Layer_0
  10
197.27393
  20
173.75284
  0
VERTEX
  5
aca
  8
Layer_0
  10
197.23587
  20
173.31418
  0
VERTEX
  5
acb
  8
Layer_0
  10
197.22255
  20
172.95584
  0
VERTEX
  5
acc
  8
Layer_0
  10
197.22723
  20
172.51126
  0
VERTEX
  5
acd
  8
Layer_0
  10
197.24451
  20
172.15163
  0
VERTEX
  5
ace
  8
Layer_0
  10
197.27881
  20
171.86342
  0
VERTEX
  5
acf
  8
Layer_0
  10
197.33463
  20
171.63316
  0
VERTEX
  5
ad0
  8
Layer_0
  10
197.41638
  20
171.44734
  0
VERTEX
  5
ad1
  8
Layer_0
  10
197.52856
  20
171.29245
  0
VERTEX
  5
ad2
  8
Layer_0
  10
197.67566
  20
171.15501
  0
VERTEX
  5
ad3
  8
Layer_0
  10
197.86209
  20
171.02151
  0
VERTEX
  5
ad4
  8
Layer_0
  10
198.06479
  20
170.89471
  0
VERTEX
  5
ad5
  8
Layer_0
  10
198.23883
  20
170.80602
  0
VERTEX
  5
ad6
  8
Layer_0
  10
198.39944
  20
170.75638
  0
VERTEX
  5
ad7
  8
Layer_0
  10
198.56183
  20
170.7468
  0
VERTEX
  5
ad8
  8
Layer_0
  10
198.74118
  20
170.77823
  0
VERTEX
  5
ad9
  8
Layer_0
  10
198.95273
  20
170.85165
  0
VERTEX
  5
ada
  8
Layer_0
  10
199.2117
  20
170.96805
  0
VERTEX
  5
adb
  8
Layer_0
  10
199.53326
  20
171.12837
  0
VERTEX
  5
adc
  8
Layer_0
  10
200.01089
  20
171.40654
  0
VERTEX
  5
add
  8
Layer_0
  10
200.50752
  20
171.76112
  0
VERTEX
  5
ade
  8
Layer_0
  10
201.02065
  20
172.18732
  0
VERTEX
  5
adf
  8
Layer_0
  10
201.54774
  20
172.68042
  0
VERTEX
  5
ae0
  8
Layer_0
  10
202.0863
  20
173.23563
  0
VERTEX
  5
ae1
  8
Layer_0
  10
202.63382
  20
173.84818
  0
VERTEX
  5
ae2
  8
Layer_0
  10
203.18776
  20
174.51331
  0
VERTEX
  5
ae3
  8
Layer_0
  10
203.74561
  20
175.22627
  0
VERTEX
  5
ae4
  8
Layer_0
  10
204.30487
  20
175.9823
  0
VERTEX
  5
ae5
  8
Layer_0
  10
204.86302
  20
176.77666
  0
VERTEX
  5
ae6
  8
Layer_0
  10
205.41754
  20
177.60455
  0
VERTEX
  5
ae7
  8
Layer_0
  10
205.96593
  20
178.46124
  0
VERTEX
  5
ae8
  8
Layer_0
  10
207.03423
  20
180.24194
  0
VERTEX
  5
ae9
  8
Layer_0
  10
208.04784
  20
182.08064
  0
VERTEX
  5
aea
  8
Layer_0
  10
208.98662
  20
183.93929
  0
VERTEX
  5
aeb
  8
Layer_0
  10
209.83046
  20
185.77979
  0
VERTEX
  5
aec
  8
Layer_0
  10
210.21051
  20
186.6813
  0
VERTEX
  5
aed
  8
Layer_0
  10
210.55927
  20
187.56403
  0
VERTEX
  5
aee
  8
Layer_0
  10
210.87422
  20
188.42316
  0
VERTEX
  5
aef
  8
Layer_0
  10
211.15289
  20
189.25397
  0
VERTEX
  5
af0
  8
Layer_0
  10
211.39275
  20
190.05167
  0
VERTEX
  5
af1
  8
Layer_0
  10
211.59125
  20
190.81149
  0
VERTEX
  5
af2
  8
Layer_0
  10
211.74594
  20
191.52867
  0
VERTEX
  5
af3
  8
Layer_0
  10
211.85425
  20
192.1985
  0
VERTEX
  5
af4
  8
Layer_0
  10
211.91368
  20
192.81618
  0
VERTEX
  5
af5
  8
Layer_0
  10
211.92174
  20
193.37695
  0
VERTEX
  5
af6
  8
Layer_0
  10
211.87589
  20
193.87604
  0
VERTEX
  5
af7
  8
Layer_0
  10
211.77362
  20
194.30872
  0
VERTEX
  5
af8
  8
Layer_0
  10
211.58342
  20
194.75262
  0
VERTEX
  5
af9
  8
Layer_0
  10
211.33401
  20
195.11942
  0
VERTEX
  5
afa
  8
Layer_0
  10
211.03018
  20
195.40698
  0
VERTEX
  5
afb
  8
Layer_0
  10
210.67673
  20
195.61325
  0
VERTEX
  5
afc
  8
Layer_0
  10
210.27844
  20
195.73611
  0
VERTEX
  5
afd
  8
Layer_0
  10
209.84009
  20
195.77345
  0
VERTEX
  5
afe
  8
Layer_0
  10
209.36649
  20
195.72321
  0
VERTEX
  5
aff
  8
Layer_0
  10
208.86241
  20
195.58325
  0
SEQEND
  0
POLYLINE
  5
b01
  8
Layer_0
  62
0
  70
1
  66
1
  10
0
  20
0
  30
0
  0
VERTEX
  5
b01
  8
Layer_0
  10
167.4603
  20
178.21735
  0
VERTEX
  5
b02
  8
Layer_0
  10
166.90483
  20
177.99976
  0
VERTEX
  5
b03
  8
Layer_0
  10
166.32323
  20
177.75075
  0
VERTEX
  5
b04
  8
Layer_0
  10
165.71297
  20
177.46901
  0
VERTEX
  5
b05
  8
Layer_0
  10
165.07153
  20
177.15331
  0
VERTEX
  5
b06
  8
Layer_0
  10
164.39642
  20
176.80234
  0
VERTEX
  5
b07
  8
Layer_0
  10
163.68509
  20
176.41486
  0
VERTEX
  5
b08
  8
Layer_0
  10
162.93506
  20
175.98955
  0
VERTEX
  5
b09
  8
Layer_0
  10
162.1438
  20
175.52518
  0
VERTEX
  5
b0a
  8
Layer_0
  10
161.32465
  20
175.03699
  0
VERTEX
  5
b0b
  8
Layer_0
  10
162.69531
  20
173.858
  0
VERTEX
  5
b0c
  8
Layer_0
  10
162.22015
  20
171.51895
  0
VERTEX
  5
b0d
  8
Layer_0
  10
162.12881
  20
171.08566
  0
VERTEX
  5
b0e
  8
Layer_0
  10
162.02242
  20
170.6113
  0
VERTEX
  5
b0f
  8
Layer_0
  10
161.90091
  20
170.09549
  0
VERTEX
  5
b10
  8
Layer_0
  10
161.76416
  20
169.53784
  0
VERTEX
  5
b11
  8
Layer_0
  10
161.61209
  20
168.93805
  0
VERTEX
  5
b12
  8
Layer_0
  10
161.44458
  20
168.29578
  0
VERTEX
  5
b13
  8
Layer_0
  10
161.26157
  20
167.61063
  0
VERTEX
  5
b14
  8
Layer_0
  10
161.06296
  20
166.88226
  0
VERTEX
  5
b15
  8
Layer_0
  10
160.84863
  20
166.11035
  0
VERTEX
  5
b16
  8
Layer_0
  10
160.6185
  20
165.29453
  0
VERTEX
  5
b17
  8
Layer_0
  10
160.37245
  20
164.43443
  0
VERTEX
  5
b18
  8
Layer_0
  10
160.1104
  20
163.52972
  0
VERTEX
  5
b19
  8
Layer_0
  10
159.83226
  20
162.58003
  0
VERTEX
  5
b1a
  8
Layer_0
  10
159.5379
  20
161.58504
  0
VERTEX
  5
b1b
  8
Layer_0
  10
159.22726
  20
160.54437
  0
VERTEX
  5
b1c
  8
Layer_0
  10
158.90025
  20
159.45767
  0
VERTEX
  5
b1d
  8
Layer_0
  10
158.74677
  20
158.93954
  0
VERTEX
  5
b1e
  8
Layer_0
  10
158.60945
  20
158.45616
  0
VERTEX
  5
b1f
  8
Layer_0
  10
158.49088
  20
158.01813
  0
VERTEX
  5
b20
  8
Layer_0
  10
158.39365
  20
157.63602
  0
VERTEX
  5
b21
  8
Layer_0
  10
158.32034
  20
157.32039
  0
VERTEX
  5
b22
  8
Layer_0
  10
158.27353
  20
157.08185
  0
VERTEX
  5
b23
  8
Layer_0
  10
158.26088
  20
156.9948
  0
VERTEX
  5
b24
  8
Layer_0
  10
158.2558
  20
156.93097
  0
VERTEX
  5
b25
  8
Layer_0
  10
158.25867
  20
156.89169
  0
VERTEX
  5
b26
  8
Layer_0
  10
158.26978
  20
156.87833
  0
VERTEX
  5
b27
  8
Layer_0
  10
158.32266
  20
156.88794
  0
VERTEX
  5
b28
  8
Layer_0
  10
158.39532
  20
156.91623
  0
VERTEX
  5
b29
  8
Layer_0
  10
158.48679
  20
156.9624
  0
VERTEX
  5
b2a
  8
Layer_0
  10
158.59612
  20
157.0257
  0
VERTEX
  5
b2b
  8
Layer_0
  10
158.86456
  20
157.20042
  0
VERTEX
  5
b2c
  8
Layer_0
  10
159.19302
  20
157.43402
  0
VERTEX
  5
b2d
  8
Layer_0
  10
159.57391
  20
157.72018
  0
VERTEX
  5
b2e
  8
Layer_0
  10
159.99963
  20
158.05257
  0
VERTEX
  5
b2f
  8
Layer_0
  10
160.46254
  20
158.42482
  0
VERTEX
  5
b30
  8
Layer_0
  10
160.95502
  20
158.83061
  0
VERTEX
  5
b31
  8
Layer_0
  10
161.99829
  20
159.71744
  0
VERTEX
  5
b32
  8
Layer_0
  10
163.06859
  20
160.66229
  0
VERTEX
  5
b33
  8
Layer_0
  10
163.59485
  20
161.14066
  0
VERTEX
  5
b34
  8
Layer_0
  10
164.105
  20
161.6145
  0
VERTEX
  5
b35
  8
Layer_0
  10
164.59146
  20
162.07751
  0
VERTEX
  5
b36
  8
Layer_0
  10
165.0466
  20
162.52332
  0
VERTEX
  5
b37
  8
Layer_0
  10
166.25644
  20
163.75429
  0
VERTEX
  5
b38
  8
Layer_0
  10
167.37686
  20
164.94833
  0
VERTEX
  5
b39
  8
Layer_0
  10
168.40701
  20
166.104
  0
VERTEX
  5
b3a
  8
Layer_0
  10
169.34607
  20
167.21985
  0
VERTEX
  5
b3b
  8
Layer_0
  10
169.78119
  20
167.76234
  0
VERTEX
  5
b3c
  8
Layer_0
  10
170.19321
  20
168.29431
  0
VERTEX
  5
b3d
  8
Layer_0
  10
170.58203
  20
168.81561
  0
VERTEX
  5
b3e
  8
Layer_0
  10
170.94757
  20
169.326
  0
VERTEX
  5
b3f
  8
Layer_0
  10
171.2897
  20
169.82532
  0
VERTEX
  5
b40
  8
Layer_0
  10
171.60834
  20
170.31339
  0
VERTEX
  5
b41
  8
Layer_0
  10
171.90338
  20
170.79002
  0
VERTEX
  5
b42
  8
Layer_0
  10
172.1747
  20
171.25504
  0
VERTEX
  5
b43
  8
Layer_0
  10
172.42221
  20
171.70824
  0
VERTEX
  5
b44
  8
Layer_0
  10
172.64578
  20
172.14944
  0
VERTEX
  5
b45
  8
Layer_0
  10
172.84534
  20
172.57848
  0
VERTEX
  5
b46
  8
Layer_0
  10
173.02078
  20
172.99513
  0
VERTEX
  5
b47
  8
Layer_0
  10
173.17198
  20
173.39925
  0
VERTEX
  5
b48
  8
Layer_0
  10
173.29884
  20
173.79065
  0
VERTEX
  5
b49
  8
Layer_0
  10
173.40126
  20
174.16911
  0
VERTEX
  5
b4a
  8
Layer_0
  10
173.47914
  20
174.53448
  0
VERTEX
  5
b4b
  8
Layer_0
  10
173.53238
  20
174.88657
  0
VERTEX
  5
b4c
  8
Layer_0
  10
173.56084
  20
175.22519
  0
VERTEX
  5
b4d
  8
Layer_0
  10
173.56445
  20
175.55014
  0
VERTEX
  5
b4e
  8
Layer_0
  10
173.54311
  20
175.86127
  0
VERTEX
  5
b4f
  8
Layer_0
  10
173.4967
  20
176.15837
  0
VERTEX
  5
b50
  8
Layer_0
  10
173.42511
  20
176.44127
  0
VERTEX
  5
b51
  8
Layer_0
  10
173.32825
  20
176.70976
  0
VERTEX
  5
b52
  8
Layer_0
  10
173.20602
  20
176.9637
  0
VERTEX
  5
b53
  8
Layer_0
  10
172.94768
  20
177.35779
  0
VERTEX
  5
b54
  8
Layer_0
  10
172.62758
  20
177.71733
  0
VERTEX
  5
b55
  8
Layer_0
  10
172.25584
  20
178.0365
  0
VERTEX
  5
b56
  8
Layer_0
  10
171.84264
  20
178.30942
  0
VERTEX
  5
b57
  8
Layer_0
  10
171.39807
  20
178.5303
  0
VERTEX
  5
b58
  8
Layer_0
  10
170.93231
  20
178.69327
  0
VERTEX
  5
b59
  8
Layer_0
  10
170.45544
  20
178.79251
  0
VERTEX
  5
b5a
  8
Layer_0
  10
169.97766
  20
178.8222
  0
VERTEX
  5
b5b
  8
Layer_0
  10
169.75844
  20
178.80737
  0
VERTEX
  5
b5c
  8
Layer_0
  10
169.4913
  20
178.77022
  0
VERTEX
  5
b5d
  8
Layer_0
  10
169.18655
  20
178.71323
  0
VERTEX
  5
b5e
  8
Layer_0
  10
168.85452
  20
178.63885
  0
VERTEX
  5
b5f
  8
Layer_0
  10
168.14999
  20
178.44794
  0
VERTEX
  5
b60
  8
Layer_0
  10
167.4603
  20
178.21735
  0
SEQEND
  0
POLYLINE
  5
b62
  8
Layer_0
  62
0
  70
1
  66
1
  10
0
  20
0
  30
0
  0
VERTEX
  5
b62
  8
Layer_0
  10
169.44443
  20
153.77859
  0
VERTEX
  5
b63
  8
Layer_0
  10
169.17938
  20
153.71513
  0
VERTEX
  5
b64
  8
Layer_0
  10
168.84955
  20
153.60922
  0
VERTEX
  5
b65
  8
Layer_0
  10
168.46277
  20
153.46487
  0
VERTEX
  5
b66
  8
Layer_0
  10
168.02689
  20
153.28604
  0
VERTEX
  5
b67
  8
Layer_0
  10
167.54977
  20
153.07672
  0
VERTEX
  5
b68
  8
Layer_0
  10
167.03928
  20
152.84094
  0
VERTEX
  5
b69
  8
Layer_0
  10
166.50322
  20
152.58267
  0
VERTEX
  5
b6a
  8
Layer_0
  10
165.94949
  20
152.30591
  0
VERTEX
  5
b6b
  8
Layer_0
  10
164.82037
  20
151.71286
  0
VERTEX
  5
b6c
  8
Layer_0
  10
163.71477
  20
151.09372
  0
VERTEX
  5
b6d
  8
Layer_0
  10
163.1904
  20
150.78435
  0
VERTEX
  5
b6e
  8
Layer_0
  10
162.69545
  20
150.48042
  0
VERTEX
  5
b6f
  8
Layer_0
  10
162.23779
  20
150.18594
  0
VERTEX
  5
b70
  8
Layer_0
  10
161.82527
  20
149.90494
  0
VERTEX
  5
b71
  8
Layer_0
  10
161.36954
  20
149.57146
  0
VERTEX
  5
b72
  8
Layer_0
  10
160.88229
  20
149.19263
  0
VERTEX
  5
b73
  8
Layer_0
  10
160.37161
  20
148.77629
  0
VERTEX
  5
b74
  8
Layer_0
  10
159.84557
  20
148.33032
  0
VERTEX
  5
b75
  8
Layer_0
  10
158.77977
  20
147.38095
  0
VERTEX
  5
b76
  8
Layer_0
  10
157.7496
  20
146.4075
  0
VERTEX
  5
b77
  8
Layer_0
  10
157.26807
  20
145.93141
  0
VERTEX
  5
b78
  8
Layer_0
  10
156.8197
  20
145.47292
  0
VERTEX
  5
b79
  8
Layer_0
  10
156.41258
  20
145.03989
  0
VERTEX
  5
b7a
  8
Layer_0
  10
156.05481
  20
144.64017
  0
VERTEX
  5
b7b
  8
Layer_0
  10
155.75443
  20
144.28165
  0
VERTEX
  5
b7c
  8
Layer_0
  10
155.51953
  20
143.97221
  0
VERTEX
  5
b7d
  8
Layer_0
  10
155.4292
  20
143.83835
  0
VERTEX
  5
b7e
  8
Layer_0
  10
155.35825
  20
143.71971
  0
VERTEX
  5
b7f
  8
Layer_0
  10
155.30771
  20
143.61728
  0
VERTEX
  5
b80
  8
Layer_0
  10
155.27859
  20
143.53203
  0
VERTEX
  5
b81
  8
Layer_0
  10
155.24326
  20
143.37172
  0
VERTEX
  5
b82
  8
Layer_0
  10
155.20621
  20
143.18341
  0
VERTEX
  5
b83
  8
Layer_0
  10
155.16769
  20
142.96922
  0
VERTEX
  5
b84
  8
Layer_0
  10
155.12794
  20
142.73129
  0
VERTEX
  5
b85
  8
Layer_0
  10
155.04559
  20
142.19272
  0
VERTEX
  5
b86
  8
Layer_0
  10
154.96089
  20
141.58469
  0
VERTEX
  5
b87
  8
Layer_0
  10
154.79152
  20
140.22845
  0
VERTEX
  5
b88
  8
Layer_0
  10
154.63394
  20
138.79886
  0
VERTEX
  5
b89
  8
Layer_0
  10
154.56396
  20
138.09912
  0
VERTEX
  5
b8a
  8
Layer_0
  10
154.50223
  20
137.43216
  0
VERTEX
  5
b8b
  8
Layer_0
  10
154.4505
  20
136.81499
  0
VERTEX
  5
b8c
  8
Layer_0
  10
154.41051
  20
136.2646
  0
VERTEX
  5
b8d
  8
Layer_0
  10
154.39548
  20
136.01979
  0
VERTEX
  5
b8e
  8
Layer_0
  10
154.38403
  20
135.79807
  0
VERTEX
  5
b8f
  8
Layer_0
  10
154.37642
  20
135.60158
  0
VERTEX
  5
b90
  8
Layer_0
  10
154.37285
  20
135.43243
  0
VERTEX
  5
b91
  8
Layer_0
  10
154.37354
  20
135.29277
  0
VERTEX
  5
b92
  8
Layer_0
  10
154.37871
  20
135.18472
  0
VERTEX
  5
b93
  8
Layer_0
  10
154.38858
  20
135.11038
  0
VERTEX
  5
b94
  8
Layer_0
  10
154.40337
  20
135.07193
  0
VERTEX
  5
b95
  8
Layer_0
  10
154.52267
  20
134.98837
  0
VERTEX
  5
b96
  8
Layer_0
  10
154.71956
  20
134.91536
  0
VERTEX
  5
b97
  8
Layer_0
  10
154.98526
  20
134.85291
  0
VERTEX
  5
b98
  8
Layer_0
  10
155.31104
  20
134.80109
  0
VERTEX
  5
b99
  8
Layer_0
  10
155.68813
  20
134.75996
  0
VERTEX
  5
b9a
  8
Layer_0
  10
156.1078
  20
134.72958
  0
VERTEX
  5
b9b
  8
Layer_0
  10
156.56131
  20
134.71001
  0
VERTEX
  5
b9c
  8
Layer_0
  10
157.03992
  20
134.70131
  0
VERTEX
  5
b9d
  8
Layer_0
  10
158.0374
  20
134.71674
  0
VERTEX
  5
b9e
  8
Layer_0
  10
159.0303
  20
134.77634
  0
VERTEX
  5
b9f
  8
Layer_0
  10
159.50319
  20
134.82285
  0
VERTEX
  5
ba0
  8
Layer_0
  10
159.94867
  20
134.88055
  0
VERTEX
  5
ba1
  8
Layer_0
  10
160.358
  20
134.94955
  0
VERTEX
  5
ba2
  8
Layer_0
  10
160.72249
  20
135.02988
  0
VERTEX
  5
ba3
  8
Layer_0
  10
161.65546
  20
135.29999
  0
VERTEX
  5
ba4
  8
Layer_0
  10
162.61842
  20
135.64203
  0
VERTEX
  5
ba5
  8
Layer_0
  10
163.60257
  20
136.0498
  0
VERTEX
  5
ba6
  8
Layer_0
  10
164.59901
  20
136.51715
  0
VERTEX
  5
ba7
  8
Layer_0
  10
165.59889
  20
137.03786
  0
VERTEX
  5
ba8
  8
Layer_0
  10
166.59335
  20
137.60571
  0
VERTEX
  5
ba9
  8
Layer_0
  10
167.57355
  20
138.21457
  0
VERTEX
  5
baa
  8
Layer_0
  10
168.53059
  20
138.85817
  0
VERTEX
  5
bab
  8
Layer_0
  10
169.45563
  20
139.53036
  0
VERTEX
  5
bac
  8
Layer_0
  10
170.33983
  20
140.22495
  0
VERTEX
  5
bad
  8
Layer_0
  10
171.17429
  20
140.93571
  0
VERTEX
  5
bae
  8
Layer_0
  10
171.95016
  20
141.65648
  0
VERTEX
  5
baf
  8
Layer_0
  10
172.6586
  20
142.38104
  0
VERTEX
  5
bb0
  8
Layer_0
  10
173.29074
  20
143.10323
  0
VERTEX
  5
bb1
  8
Layer_0
  10
173.83771
  20
143.81682
  0
VERTEX
  5
bb2
  8
Layer_0
  10
174.29065
  20
144.51564
  0
VERTEX
  5
bb3
  8
Layer_0
  10
174.66383
  20
145.22809
  0
VERTEX
  5
bb4
  8
Layer_0
  10
174.95984
  20
145.95073
  0
VERTEX
  5
bb5
  8
Layer_0
  10
175.18027
  20
146.67738
  0
VERTEX
  5
bb6
  8
Layer_0
  10
175.32672
  20
147.40189
  0
VERTEX
  5
bb7
  8
Layer_0
  10
175.40082
  20
148.1181
  0
VERTEX
  5
bb8
  8
Layer_0
  10
175.40414
  20
148.81985
  0
VERTEX
  5
bb9
  8
Layer_0
  10
175.33832
  20
149.50098
  0
VERTEX
  5
bba
  8
Layer_0
  10
175.20494
  20
150.15535
  0
VERTEX
  5
bbb
  8
Layer_0
  10
175.00563
  20
150.77679
  0
VERTEX
  5
bbc
  8
Layer_0
  10
174.74196
  20
151.35916
  0
VERTEX
  5
bbd
  8
Layer_0
  10
174.41556
  20
151.89629
  0
VERTEX
  5
bbe
  8
Layer_0
  10
174.02803
  20
152.38202
  0
VERTEX
  5
bbf
  8
Layer_0
  10
173.58099
  20
152.81018
  0
VERTEX
  5
bc0
  8
Layer_0
  10
173.07602
  20
153.17465
  0
VERTEX
  5
bc1
  8
Layer_0
  10
172.51472
  20
153.46924
  0
VERTEX
  5
bc2
  8
Layer_0
  10
171.89874
  20
153.68781
  0
VERTEX
  5
bc3
  8
Layer_0
  10
171.54633
  20
153.78174
  0
VERTEX
  5
bc4
  8
Layer_0
  10
171.2446
  20
153.85068
  0
VERTEX
  5
bc5
  8
Layer_0
  10
170.97472
  20
153.89532
  0
VERTEX
  5
bc6
  8
Layer_0
  10
170.71788
  20
153.91638
  0
VERTEX
  5
bc7
  8
Layer_0
  10
170.45526
  20
153.91455
  0
VERTEX
  5
bc8
  8
Layer_0
  10
170.16803
  20
153.8905
  0
VERTEX
  5
bc9
  8
Layer_0
  10
169.83737
  20
153.84496
  0
VERTEX
  5
bca
  8
Layer_0
  10
169.44443
  20
153.77859
  0
SEQEND
  0
POLYLINE
  5
bcc
  8
Layer_0
  62
0
  70
1
  66
1
  10
0
  20
0
  30
0
  0
VERTEX
  5
bcc
  8
Layer_0
  10
150.15977
  20
235.03548
  0
VERTEX
  5
bcd
  8
Layer_0
  10
149.96593
  20
234.85291
  0
VERTEX
  5
bce
  8
Layer_0
  10
149.74734
  20
234.61246
  0
VERTEX
  5
bcf
  8
Layer_0
  10
149.50749
  20
234.31973
  0
VERTEX
  5
bd0
  8
Layer_0
  10
149.24982
  20
233.98032
  0
VERTEX
  5
bd1
  8
Layer_0
  10
148.97777
  20
233.59984
  0
VERTEX
  5
bd2
  8
Layer_0
  10
148.69479
  20
233.1839
  0
VERTEX
  5
bd3
  8
Layer_0
  10
148.40434
  20
232.73807
  0
VERTEX
  5
bd4
  8
Layer_0
  10
148.10985
  20
232.26801
  0
VERTEX
  5
bd5
  8
Layer_0
  10
147.52254
  20
231.27753
  0
VERTEX
  5
bd6
  8
Layer_0
  10
146.96045
  20
230.25729
  0
VERTEX
  5
bd7
  8
Layer_0
  10
146.69748
  20
229.75003
  0
VERTEX
  5
bd8
  8
Layer_0
  10
146.45114
  20
229.25214
  0
VERTEX
  5
bd9
  8
Layer_0
  10
146.2249
  20
228.76921
  0
VERTEX
  5
bda
  8
Layer_0
  10
146.0222
  20
228.30688
  0
VERTEX
  5
bdb
  8
Layer_0
  10
145.71202
  20
227.52921
  0
VERTEX
  5
bdc
  8
Layer_0
  10
145.39828
  20
226.66205
  0
VERTEX
  5
bdd
  8
Layer_0
  10
145.08325
  20
225.71524
  0
VERTEX
  5
bde
  8
Layer_0
  10
144.76921
  20
224.69855
  0
VERTEX
  5
bdf
  8
Layer_0
  10
144.45842
  20
223.62173
  0
VERTEX
  5
be0
  8
Layer_0
  10
144.15317
  20
222.49463
  0
VERTEX
  5
be1
  8
Layer_0
  10
143.85574
  20
221.32697
  0
VERTEX
  5
be2
  8
Layer_0
  10
143.56839
  20
220.12854
  0
VERTEX
  5
be3
  8
Layer_0
  10
143.03305
  20
217.67857
  0
VERTEX
  5
be4
  8
Layer_0
  10
142.56535
  20
215.22296
  0
VERTEX
  5
be5
  8
Layer_0
  10
142.36256
  20
214.01752
  0
VERTEX
  5
be6
  8
Layer_0
  10
142.18352
  20
212.84
  0
VERTEX
  5
be7
  8
Layer_0
  10
142.03049
  20
211.7002
  0
VERTEX
  5
be8
  8
Layer_0
  10
141.90573
  20
210.60789
  0
VERTEX
  5
be9
  8
Layer_0
  10
141.84146
  20
209.89594
  0
VERTEX
  5
bea
  8
Layer_0
  10
141.79051
  20
209.14389
  0
VERTEX
  5
beb
  8
Layer_0
  10
141.75259
  20
208.36053
  0
VERTEX
  5
bec
  8
Layer_0
  10
141.72739
  20
207.55466
  0
VERTEX
  5
bed
  8
Layer_0
  10
141.71388
  20
205.91031
  0
VERTEX
  5
bee
  8
Layer_0
  10
141.74751
  20
204.28096
  0
VERTEX
  5
bef
  8
Layer_0
  10
141.78122
  20
203.49382
  0
VERTEX
  5
bf0
  8
Layer_0
  10
141.82582
  20
202.73672
  0
VERTEX
  5
bf1
  8
Layer_0
  10
141.88097
  20
202.01843
  0
VERTEX
  5
bf2
  8
Layer_0
  10
141.94633
  20
201.3477
  0
VERTEX
  5
bf3
  8
Layer_0
  10
142.02164
  20
200.73331
  0
VERTEX
  5
bf4
  8
Layer_0
  10
142.10657
  20
200.18402
  0
VERTEX
  5
bf5
  8
Layer_0
  10
142.20081
  20
199.70859
  0
VERTEX
  5
bf6
  8
Layer_0
  10
142.30408
  20
199.31578
  0
VERTEX
  5
bf7
  8
Layer_0
  10
142.53391
  20
198.67276
  0
VERTEX
  5
bf8
  8
Layer_0
  10
142.81573
  20
198.05188
  0
VERTEX
  5
bf9
  8
Layer_0
  10
143.14014
  20
197.46611
  0
VERTEX
  5
bfa
  8
Layer_0
  10
143.49767
  20
196.92841
  0
VERTEX
  5
bfb
  8
Layer_0
  10
143.87891
  20
196.45172
  0
VERTEX
  5
bfc
  8
Layer_0
  10
144.27443
  20
196.049
  0
VERTEX
  5
bfd
  8
Layer_0
  10
144.67477
  20
195.73318
  0
VERTEX
  5
bfe
  8
Layer_0
  10
145.07054
  20
195.51726
  0
VERTEX
  5
bff
  8
Layer_0
  10
145.46521
  20
195.38112
  0
VERTEX
  5
c00
  8
Layer_0
  10
145.85722
  20
195.30035
  0
VERTEX
  5
c01
  8
Layer_0
  10
146.24631
  20
195.27448
  0
VERTEX
  5
c02
  8
Layer_0
  10
146.63223
  20
195.30299
  0
VERTEX
  5
c03
  8
Layer_0
  10
147.01477
  20
195.38541
  0
VERTEX
  5
c04
  8
Layer_0
  10
147.39365
  20
195.52121
  0
VERTEX
  5
c05
  8
Layer_0
  10
147.76865
  20
195.7099
  0
VERTEX
  5
c06
  8
Layer_0
  10
148.13951
  20
195.95099
  0
VERTEX
  5
c07
  8
Layer_0
  10
148.50601
  20
196.24399
  0
VERTEX
  5
c08
  8
Layer_0
  10
148.86789
  20
196.58838
  0
VERTEX
  5
c09
  8
Layer_0
  10
149.22491
  20
196.98369
  0
VERTEX
  5
c0a
  8
Layer_0
  10
149.57683
  20
197.4294
  0
VERTEX
  5
c0b
  8
Layer_0
  10
149.92342
  20
197.92502
  0
VERTEX
  5
c0c
  8
Layer_0
  10
150.2644
  20
198.47006
  0
VERTEX
  5
c0d
  8
Layer_0
  10
150.59955
  20
199.06403
  0
VERTEX
  5
c0e
  8
Layer_0
  10
150.92863
  20
199.70642
  0
VERTEX
  5
c0f
  8
Layer_0
  10
151.2514
  20
200.39673
  0
VERTEX
  5
c10
  8
Layer_0
  10
151.5676
  20
201.13448
  0
VERTEX
  5
c11
  8
Layer_0
  10
151.877
  20
201.91916
  0
VERTEX
  5
c12
  8
Layer_0
  10
152.17937
  20
202.75024
  0
VERTEX
  5
c13
  8
Layer_0
  10
152.47443
  20
203.62727
  0
VERTEX
  5
c14
  8
Layer_0
  10
152.76196
  20
204.54976
  0
VERTEX
  5
c15
  8
Layer_0
  10
153.04172
  20
205.51718
  0
VERTEX
  5
c16
  8
Layer_0
  10
153.31343
  20
206.52905
  0
VERTEX
  5
c17
  8
Layer_0
  10
153.57689
  20
207.58487
  0
VERTEX
  5
c18
  8
Layer_0
  10
153.83185
  20
208.68414
  0
VERTEX
  5
c19
  8
Layer_0
  10
154.07806
  20
209.82635
  0
VERTEX
  5
c1a
  8
Layer_0
  10
154.31528
  20
211.01103
  0
VERTEX
  5
c1b
  8
Layer_0
  10
154.54326
  20
212.23766
  0
VERTEX
  5
c1c
  8
Layer_0
  10
154.76178
  20
213.50577
  0
VERTEX
  5
c1d
  8
Layer_0
  10
154.97057
  20
214.81482
  0
VERTEX
  5
c1e
  8
Layer_0
  10
155.16937
  20
216.16437
  0
VERTEX
  5
c1f
  8
Layer_0
  10
155.42676
  20
218.15489
  0
VERTEX
  5
c20
  8
Layer_0
  10
155.64493
  20
220.18719
  0
VERTEX
  5
c21
  8
Layer_0
  10
155.82063
  20
222.20395
  0
VERTEX
  5
c22
  8
Layer_0
  10
155.95067
  20
224.14786
  0
VERTEX
  5
c23
  8
Layer_0
  10
155.99756
  20
225.07457
  0
VERTEX
  5
c24
  8
Layer_0
  10
156.03181
  20
225.96158
  0
VERTEX
  5
c25
  8
Layer_0
  10
156.05304
  20
226.8017
  0
VERTEX
  5
c26
  8
Layer_0
  10
156.06082
  20
227.58777
  0
VERTEX
  5
c27
  8
Layer_0
  10
156.05478
  20
228.31264
  0
VERTEX
  5
c28
  8
Layer_0
  10
156.03448
  20
228.96912
  0
VERTEX
  5
c29
  8
Layer_0
  10
155.99957
  20
229.55005
  0
VERTEX
  5
c2a
  8
Layer_0
  10
155.94958
  20
230.04829
  0
VERTEX
  5
c2b
  8
Layer_0
  10
155.81662
  20
230.86526
  0
VERTEX
  5
c2c
  8
Layer_0
  10
155.63376
  20
231.63155
  0
VERTEX
  5
c2d
  8
Layer_0
  10
155.40518
  20
232.34357
  0
VERTEX
  5
c2e
  8
Layer_0
  10
155.13501
  20
232.99774
  0
VERTEX
  5
c2f
  8
Layer_0
  10
154.82739
  20
233.59052
  0
VERTEX
  5
c30
  8
Layer_0
  10
154.4865
  20
234.11829
  0
VERTEX
  5
c31
  8
Layer_0
  10
154.11646
  20
234.57751
  0
VERTEX
  5
c32
  8
Layer_0
  10
153.72142
  20
234.96461
  0
VERTEX
  5
c33
  8
Layer_0
  10
153.30554
  20
235.276
  0
VERTEX
  5
c34
  8
Layer_0
  10
152.87302
  20
235.50809
  0
VERTEX
  5
c35
  8
Layer_0
  10
152.42795
  20
235.65732
  0
VERTEX
  5
c36
  8
Layer_0
  10
151.97447
  20
235.72012
  0
VERTEX
  5
c37
  8
Layer_0
  10
151.51677
  20
235.69293
  0
VERTEX
  5
c38
  8
Layer_0
  10
151.05899
  20
235.57213
  0
VERTEX
  5
c39
  8
Layer_0
  10
150.83136
  20
235.47552
  0
VERTEX
  5
c3a
  8
Layer_0
  10
150.60529
  20
235.35419
  0
VERTEX
  5
c3b
  8
Layer_0
  10
150.38126
  20
235.20764
  0
VERTEX
  5
c3c
  8
Layer_0
  10
150.15977
  20
235.03548
  0
SEQEND
  0
ENDSEC
  0
EOF
